Standard Tuning (EADGBe)for accoustic guitars
Drop D Tuning (DADGBe) for the electric guitars
*


Verses
Acoustic Guitar 
-2222---3333---0000---000000------
-3333---3333---2222---333333------
-4444---0000---2222---222222------
-4444---0000---2222---000000------
-2222---2222---0000---------------
-2222---3333----------------------

On the third time through the verses the Electric Guitars come in.

Guitar 1
--------------------------------
--------------------------------
-4-44-----------------7-77------
-4-44---5-55---7-77---7-77------
-2-22---5-55---7-77---5-55------
--------3-33---5-55-------------

Guitar 2
---2-------------------------0----
--3-3---3---------3-2-0--------3--
-2--------0----------------2------
------------0------------0--------
-------2--------0-----------------
----------------------------------

Prechorus
No Acoustic Guitar

Guitar 1 & Guitar 2
-----------------------------------
-----------------------------------
-----------------------------------
-22222222---7777-7-----------------
-22222222---7777-7-----------------
-00000000---5555-5-----------------


Chorus
Acoustic Guitar
-3-33-0-00-0-00-0-00---3-33-0-00-2-22-0-00--
-3-33-3-33-2-22-0-00---3-33-2-22-3-33-2-22--
-0-00-2-22-2-22-1-11---0-00-2-22-4-44-2-22--
-0-00-0-00-2-22-2-22---0-00-2-22-4-44-2-22--
-2-22------0-00-2-22---2-22-0-00-2-22-0-00--
-3-33-----------0-00---3-33------2-22-------

Guitar 1
--------------------------------------------
--------------------------------------------
------7-77-----------------------4-44-------
-5-55-7-77-7-77-2-22---5-55-7-77-4-44-7-77--
-5-55-5-55-7-77-2-22---5-55-7-77-2-22-7-77--
-3-33------5-55-0-00---3-33-5-55------5-55--

Guitar 2 (repeat as needed)
------------------
-----------7------
------7h9-----9---
-7h9--------------
------------------
------------------

Repeat the Verse with guitar coming in on the third time through again.
Repeat the prochorus
Repeat the chorus

Solo
Guitar 1
------------------------------------------------------------
------------------------------------------------------------
-----6-8h9p8------6-8h9p8------6-8---8-6--66-88-99-66-88-99-
---0---------9--6---------9--0-----9------------------------
------------------------------------------------------------
------------------------------------------------------------

------------------------------------------------------------
-----------------77-44-55----------------99-55-77-----------
-666-888-999--44----------666-888-999-44----------666-888---
------------------------------------------------------------
------------------------------------------------------------
------------------------------------------------------------

----------------
---------7/9----
-999-444-----6--
----------------
----------------
----------------

Guitar 2
-------------------------------------------------------------
-------------------------------------------------------------
-----7--------4--------------------7-------------------------
-5-7-7-2--5-7-4-7--------------5-7-7-2--5~~------------------
-5-7-5-2--5-7-2-7----x7-then---5-7-5-2--5~~------------------
-3-5---0--3-5---5--------------3-5---0--3~~------------------

Go back and Repeat the verse, electric guitars come in on third time.
Repeat Prechorus
Repeat Chorus

Outro Chorus (the last two lines of the song)
Acoustic Guitar
-3-33-0-00-2-22-0-00--3-33-0-00-0~---------
-3-33-2-22-3-33-2-22--3-33-3-33-2~---------
-0-00-2-22-4-44-2-22--0-00-2-22-2~---------
-0-00-2-22-4-44-2-22--0-00-0-00-2~---------
-2-22-0-00-2-22-0-00--2-22------0~---------
-3-33------2-22-------3-33-----------------

Guitar 1
--------------------------------------
--------------------------------------
-----------4-44------------7-77-------
-5-55-7-77-4-44-7-77--5-55-7-77-7~----
-5-55-7-77-2-22-7-77--5-55-5-55-7~----
-3-33-5-55------5-55--3-33------5~----

Guitar 2 (repeat as needed and fade to end)
------------------
-----------7------
------7h9-----9---
-7h9--------------
------------------
------------------

The Album is amazing. Hope you enjoy playing the song!


Текст, аккорды и табулатура для песни "Someday", исполняет "Nickelback".
Используемые в песне аккорды можно найти в разделе Как брать аккорды. Аккорды для шестиструнной гитары. Другие песни можно найти на нашем сайте, воспользовавшись алфавитным указателем вверху страницы.


 
Ошибка в тексте? Выделите ошибку и нажмите Ctrl+Enter