-------------------------------------------------------------------------------
			     Nickelback- Someday
-------------------------------------------------------------------------------
Tabbed by:doughboy2787
Email:[email protected]
Tuning: dadgbe    Drop D

Verse: 2x one guitar, then 2x both guitars

e|--2--2-22---5--5-55---0--0-00---0--0-00---------------------------|
B|--3--3-33---7--7-77---0--0-00---3--3-33---------------------------|
G|--4--4-44---7--7-77---2--2-22---2--2-22---------------------------|
D|--4--4-44-------------2--2-22---0--0-00---------------------------|
A|--2--2-22---5--5-55---0--0-00-------------------------------------|
E|------------------------------------------------------------------|

Guitar 2: verse begins after first 2
e|---------------------------------------------------------------------------|
B|--0-6-3-5-0-6-3-5---3-2----------------------------------------------------|
G|------------------2-----2--------------------------------------------------|
D|---------------------------------------------------------------------------|
A|---------------------------------------------------------------------------|
E|---------------------------------------------------------------------------|

Bridge: both guitars
e|---------------------------------------------------------------------------|
B|---------------------------------------------------------------------------|
G|---------------------------------------------------------------------------|
D|--22222222------77777777---------------------------------------------------|
A|--22222222------77777777---------------------------------------------------|
E|--22222222------77777777---------------------------------------------------|

Chorus: 2x both guitars

e|---------------------------------------------------------------------------|
B|---------------------------------------------------------------------------|
G|---------------------------------------------------------------------------|
D|--5555--0000--7777- 2222-----5555--7777--9999--7777------------------------|
A|--5555--0000--7777--2222-----5555--7777--9999--7777------------------------|
E|--5555--0000--7777--2222-----5555--7777--9999--7777------------------------|

Verse: 2x one guitar, then 2x both guitars

e|--2--2-22---5--5-55---0--0-00---0--0-00---------------------------|
B|--3--3-33---7--7-77---0--0-00---3--3-33---------------------------|
G|--4--4-44---7--7-77---2--2-22---2--2-22---------------------------|
D|--4--4-44-------------2--2-22---0--0-00---------------------------|
A|--2--2-22---5--5-55---0--0-00-------------------------------------|
E|------------------------------------------------------------------|

Guitar 2:verse begins after first 2
e|---------------------------------------------------------------------------|
B|--0-6-3-5-0-6-3-5---3-2----------------------------------------------------|
G|------------------2-----2--------------------------------------------------|
D|---------------------------------------------------------------------------|
A|---------------------------------------------------------------------------|
E|---------------------------------------------------------------------------|

Bridge
e|---------------------------------------------------------------------------|
B|---------------------------------------------------------------------------|
G|---------------------------------------------------------------------------|
D|--22222222------77777777---------------------------------------------------|
A|--22222222------77777777---------------------------------------------------|
E|--22222222------77777777---------------------------------------------------|

Chorus: 2x

e|---------------------------------------------------------------------------|
B|---------------------------------------------------------------------------|
G|---------------------------------------------------------------------------|
D|--5555--0000--7777- 2222-----5555--7777--9999--7777------------------------|
A|--5555--0000--7777--2222-----5555--7777--9999--7777------------------------|
E|--5555--0000--7777--2222-----5555--7777--9999--7777------------------------|

1st Solo: Guitar 1
e|----------------------------------------------------------------------------|
B|----------------0------------------0----------------------0--2-3-----2-3----|
G|-----4—6--7p6-------------6—7p6-----------2h4-----/6h4------------2---------|
D|--------------4--------2--------4------0-------2----------------------------|
A|--7------------------0------------------------------------------------------|
E|----------------------------------------------------------------------------|

2nd Solo: Guitar 1
e|---------------------------------------------------------------------------|
B|--000-222-33----55-22-33--000-222-33----77-33-55--0-2-3---5h7------------|
G|-------------22----------------------22-----------------2------------------|
D|---------------------------------------------------------------------------|
A|---------------------------------------------------------------------------|
E|---------------------------------------------------------------------------|

Solo: Guitar 2, joins in with guitar 1’s 2nd solo
e|-777-999-1010-------1212-99-1010-777-999-1010-1414-1010-1212-777-999-1010---12-147--|
B|---------------1010-------------------------------------------------------10---------|
G|-------------------------------------------------------------------------------------|
D|-------------------------------------------------------------------------------------|
A|-------------------------------------------------------------------------------------|
E|-------------------------------------------------------------------------------------|

Verse: 2x one guitar, then 2x both guitars

e|--2--2-22---5--5-55---0--0-00---0--0-00---------------------------|
B|--3--3-33---7--7-77---0--0-00---3--3-33---------------------------|
G|--4--4-44---7--7-77---2--2-22---2--2-22---------------------------|
D|--4--4-44-------------2--2-22---0--0-00---------------------------|
A|--2--2-22---5--5-55---0--0-00-------------------------------------|
E|------------------------------------------------------------------|







Guitar 2: verse begins after first 2
e|---------------------------------------------------------------------------|
B|--0-6-3-5-0-6-3-5---3-2----------------------------------------------------|
G|------------------2-----2--------------------------------------------------|
D|---------------------------------------------------------------------------|
A|---------------------------------------------------------------------------|
E|---------------------------------------------------------------------------|

Bridge: both guitars
e|---------------------------------------------------------------------------|
B|---------------------------------------------------------------------------|
G|---------------------------------------------------------------------------|
D|--22222222------77777777---------------------------------------------------|
A|--22222222------77777777---------------------------------------------------|
E|--22222222------77777777---------------------------------------------------|

Chorus: 2x both guitars

e|---------------------------------------------------------------------------|
B|---------------------------------------------------------------------------|
G|---------------------------------------------------------------------------|
D|--5555--0000--7777- 2222-----5555--7777--9999--7777------------------------|
A|--5555--0000--7777--2222-----5555--7777--9999--7777------------------------|
E|--5555--0000--7777--2222-----5555--7777--9999--7777------------------------|

1st Outro: both guitars
e|---------------------------------------------------------------------------|
B|---------------------------------------------------------------------------|
G|---------------------------------------------------------------------------|
D|--555--777--9--------------------------------------------------------------|
A|--555--777--9--------------------------------------------------------------|
E|--555--777--9--------------------------------------------------------------|

2nd Outro: Guitar 2 only 3x
e|---------------------------------------------------------------------------|
B|----------7----------------------------------------------------------------|
G|--4h6h7-4------------------------------------------------------------------|
D|---------------------------------------------------------------------------|
A|---------------------------------------------------------------------------|
E|---------------------------------------------------------------------------|


Текст, аккорды и табулатура для песни "Someday", исполняет "Nickelback".
Используемые в песне аккорды можно найти в разделе Как брать аккорды. Аккорды для шестиструнной гитары. Другие песни можно найти на нашем сайте, воспользовавшись алфавитным указателем вверху страницы.


 
Ошибка в тексте? Выделите ошибку и нажмите Ctrl+Enter