-------------------------------------------------------------------------------
Hold Out Your Hand - Nickelback
-------------------------------------------------------------------------------
This is a great song; #10 on The State
Tabbed By: BcuzUrUnforgivn2

Dropped D (D A D G B e)

Intro
e|---------------------------------------------------------------------------|
B|---------------------------------------------------------------------------|
G|-7/87-7/87---7/87-5/87-------7/87-7/87-x-7/87-5---------------------|
D|-7/87-7/87---7/87-5/87—-3p0--7/87-7/87-x-7/87-5---------------------|
A|-5/65-5/65---5/65-3/65—-3p0--5/65-5/65-x-5/65-3---------------------|
D|----------------------------3p0--------------------------------------------|

Bridge A
e|---------------------------------------------------------------------------|
B|---------------------------------------------------------------------------|
G|-7/87-7/87—--7/87-5/87-------7/87-7/87-x-7/87-5/87-----------------|
D|-7/87-7/87---7/87-5/87—-3p0--7/87-7/87-x-7/87-5/87—-3p0------------|
A|-5/65-5/65---5/65-3/65—-3p0--5/65-5/65-x-5/65-3/65—-3p0------------|
D|----------------------------3p0-----------------------------3p0------------|

Verse
e|---------------------------------------------------------------------------|
B|---------------------------------------------------------------------------|
G|---------------------------------------------------------------------------|
D|-0-0-0-0-0--0--0-0-0---repeat----------------------------------------------|
A|-0-0-0-0-0--0--0-0-0-------------------------------------------------------|
D|-0-0-0-0-0--0--0-0-0-------------------------------------------------------|

Chorus (these are the chords, the pattern is really easy)
e|---------------------------------------------------------------------------|
B|---------------------------------------------------------------------------|
G|-5---8---------------------------------------------------------------------|
D|-5---8----0-0-0------------------------------------------------------------|
A|-3---6----0-0-0------------------------------------------------------------|
E|----------0-0-0------------------------------------------------------------|
                  P.M.

Bridge B (again, just the chords)
e|---------------------------------------------------------------------------|
B|---------------------------------------------------------------------------|
G|-3-------5--------ending:-3------------------------------------------------|
D|-3--3----5--3-------------3--3--1-1-1-1---1-1-1-1--------------------------|
A|-1--3----3--3-------------1--3--1-1-1-1---1-1-1-1--------------------------|
E|----3-------3----------------3--1-1-1-1---1-1-1-1--------------------------|
                                  P.M.      P.M.

Solo (as much as I can figure out)
Acoustic riff
e|---------------------------------------------------------------------------|
B|---------------------------------------------------------------------------|
G|-15-14-12h14p12-11/12-11---------------------------------------------------|
D|-------------------------/13-12--------------------------------------------|
A|---------------------------------------------------------------------------|
E|---------------------------------12h13-12h13-1210/12----------------------|

And the end of the electric riff
e|---------------------------------------------------------------------------|
B|---------------------------------------------------------------------------|
G|-11h12-14p12-14p12-12p11—11h12p11------------------------------------------|
D|-12----12----12----12----12------------------------------------------------|
A|---------------------------------------------------------------------------|
E|---------------------------------------------------------------------------|

Song order:
Intro    (x1)
Bridge A (x1)
Verse    (x8)
Bridge A (x1)
Verse    (x8)
Chorus   (x1)
Bridge A (x1)
Verse    (x8)
Chorus   (x1)
Bridge A (x1/2)
Chorus   (x1)
Bridge A (x1/2)
Bridge B (x1) + ending
Solo
Chorus   (x1)
Bridge A (x1/2)
Bridge B (x1) no ending
Chorus   (x3)
Bridge A (x2)
Ends on F5 (A8 D10 G10)


Текст, аккорды и табулатура для песни "Hold Out Your Hand", исполняет "Nickelback".
Используемые в песне аккорды можно найти в разделе Как брать аккорды. Аккорды для шестиструнной гитары. Другие песни можно найти на нашем сайте, воспользовавшись алфавитным указателем вверху страницы.


 
Ошибка в тексте? Выделите ошибку и нажмите Ctrl+Enter