Nickelback - Another Hole In The Head - The Long Road

Tabbed by Elvisz([email protected])

Intro:
|---------------------------------------------------------------------|
|---------------------------------------------------------------------|
|----4~----4~---4~----4~----4~---4~----4~----4~---4~----4~----4~---4~-|
|---------------------------------------------------------------------|
|-22----22----2--------------------------------------00----00----0----|
|------------------33----33----3----00----00----0---------------------|

Pre-Verse:
|--------------------------------------------------------|
|--------------------------------------------------------|
|-444--777r(0)-------777r(0)--999--777r(0)-------777r(0)-|
|-444--777r(0)--555--777r(0)--999--777r(0)--777--777r(0)-|
|-222--555r(0)--555--555r(0)--777--555r(0)--777--555r(0)-|
|---------------333-----------000-----------555----------|

Fill1:
|--------------|
|--------------|
|-4~~------2~~-|
|-4~~5~~2~~2~~-|
|-2~~5~~2~~0~~-|
|----3~~0~~----|

Verse:
|---------------------------------------------------------------------|
|---------------------------------------------------------------------|
|----4~----4~---4~----4~----4~---4~----4~----4~---4~----4~----4~---4~-|
|---------------------------------------------------------------------|
|-22----22----2--------------------------------------00----00----0----|
|------------------33----33----3----00----00----0---------------------|

|-------------------------------------------|
|-------------------------------------------|
|----4~----4~---4~----4~----4~---4~-999-----|
|-----------------------------------999---9-|
|-22----22----2---------------------777--77-|
|------------------33----33----3----000--0--|

Chorus:
|--------------------------------------------------------|
|--------------------------------------------------------|
|-444--777r(0)-------777r(0)--999--777r(0)-------777r(0)-|
|-444--777r(0)--555--777r(0)--999--777r(0)--777--777r(0)-|
|-222--555r(0)--555--555r(0)--777--555r(0)--777--555r(0)-|
|---------------333-----------000-----------555----------|

Fill2:
(Guitar1)
|---------------------------------------------------------------------|
|---------------------------------------------------------------------|
|----4~----4~---4~----4~----4~---4~----4~----4~---4~----4~----4~---4~-|
|---------------------------------------------------------------------|
|-22----22----2--------------------------------------00----00----0----|
|------------------33----33----3----00----00----0---------------------|

(Guitar2)
|--------------|
|--------------|
|-4~~------2~~-|
|-4~~5~~2~~2~~-|
|-2~~5~~2~~0~~-|
|----3~~0~~----|

Verse:
|---------------------------------------------------------------------|
|---------------------------------------------------------------------|
|----4~----4~---4~----4~----4~---4~----4~----4~---4~----4~----4~---4~-|
|---------------------------------------------------------------------|
|-22----22----2--------------------------------------00----00----0----|
|------------------33----33----3----00----00----0---------------------|

|-------------------------------------------|
|-------------------------------------------|
|----4~----4~---4~----4~----4~---4~-999-----|
|-----------------------------------999---9-|
|-22----22----2---------------------777--77-|
|------------------33----33----3----000--0--|

Chorus:
|--------------------------------------------------------|
|--------------------------------------------------------|
|-444--777r(0)-------777r(0)--999--777r(0)-------777r(0)-|
|-444--777r(0)--555--777r(0)--999--777r(0)--777--777r(0)-|
|-222--555r(0)--555--555r(0)--777--555r(0)--777--555r(0)-|
|---------------333-----------000-----------555----------|

Bridge1:
|-------------------------------------------------|
|-------------------------------------------------|
|-4x-4x-4x-4x-7x-7x-7x-7x-9x-9x-9x-9x-2x-2x-2x-2x-|
|-4x-4x-4x-4x-7x-7x-7x-7x-9x-9x-9x-9x-2x-2x-2x-2x-|
|-2x-2x-2x-2x-5x-5x-5x-5x-7x-7x-7x-7x-0x-0x-0x-0x-|
|-------------------------0x-0x-0x-0x-------------|

Fill3:
|-----|
|-----|
|-4~~-|
|-4~~-|
|-2~~-|
|-----|

Verse:
|---------------------------------------------------------------------|
|---------------------------------------------------------------------|
|----4~----4~---4~----4~----4~---4~----4~----4~---4~----4~----4~---4~-|
|---------------------------------------------------------------------|
|-22----22----2--------------------------------------00----00----0----|
|------------------33----33----3----00----00----0---------------------|

|-------------------------------------------|
|-------------------------------------------|
|----4~----4~---4~----4~----4~---4~-999-----|
|-----------------------------------999---9-|
|-22----22----2---------------------777--77-|
|------------------33----33----3----000--0--|

Fill4:
|-----|
|-----|
|-444-|
|-444-|
|-222-|
|-----|

Chorus:
|--------------------------------------------------------|
|--------------------------------------------------------|
|-444--777r(0)-------777r(0)--999--777r(0)-------777r(0)-|
|-444--777r(0)--555--777r(0)--999--777r(0)--777--777r(0)-|
|-222--555r(0)--555--555r(0)--777--555r(0)--777--555r(0)-|
|---------------333-----------000-----------555----------|

Bridge2:
|-------------------------------------------------|
|-------------------------------------------------|
|-4x-4x-4x-4x-7x-7x-7x-7x-9x-9x-9x-9x-2x-2x-2x-2x-|
|-4x-4x-4x-4x-7x-7x-7x-7x-9x-9x-9x-9x-2x-2x-2x-2x-|
|-2x-2x-2x-2x-5x-5x-5x-5x-7x-7x-7x-7x-0x-0x-0x-0x-|
|-------------------------0x-0x-0x-0x-------------|

Fill3:
|-----|
|-----|
|-4~~-|
|-4~~-|
|-2~~-|
|-----|


Текст, аккорды и табулатура для песни "Another Hole In The Head", исполняет "Nickelback".
Используемые в песне аккорды можно найти в разделе Как брать аккорды. Аккорды для шестиструнной гитары. Другие песни можно найти на нашем сайте, воспользовавшись алфавитным указателем вверху страницы.


 
Ошибка в тексте? Выделите ошибку и нажмите Ctrl+Enter