Song Title: Entertaining Angels
Artist: Newsboys
Album: Step Up To The Microphone
Written By: Davis, Furler, and Joel
1998 Helmet Publishing/Dawn Treader Music/Fried Kiwi
Transcribed By: Charlie Edinburgh 


Intro (after strings) and Chorus:

g------------------------------------------------------------
d------------------------------------------------------------
a------------------------------------------------------------
e--5----/10-------------------------------------------------

Verse 1:

A   B       G                         A
  E        G      D             G    
A   B     G                               A                           
  E      G


Chorus:  (Play Chorus Riff)

Verse 2:

Chorus

Bridge Part:
F F E

Bridge Riff: 1st Part - 2x
g------------------------------------------------------------
d------------------------------------------------------------
a---------3-----5--------------------------------------------
e---3--5-----5-----------------------------------------------

2nd Part - 3 1/2x
g------------------------------------------------------
d------------------------------------------------------
a---5---------------3-----5----------------------------
e--------3----3--5-----5-------------------------------

The new album rocks!! If you don't have it, drop what you are doing
and go and get it!!
Check out my webpage http://www.geocities.com/SunsetStrip/Stadium/7287


Текст, аккорды и табулатура для песни "Entertaining Angels", исполняет "Newsboys".
Используемые в песне аккорды можно найти в разделе Как брать аккорды. Аккорды для шестиструнной гитары. Другие песни можно найти на нашем сайте, воспользовавшись алфавитным указателем вверху страницы.


 
Ошибка в тексте? Выделите ошибку и нажмите Ctrl+Enter