here you go 


riff 1  repeat 2x
-------------------------------------
-------------------------------------
-------------------------------------
-------------------------------------
-11-11--9h11--11-11-11--9h11-9h11----
--9-9---9-9---9--9--9---9-9--9-9-----

riff 2 repeat 2x
-------------------------------------
-------------------------------------
-------------------------------------
-22-222--1111-111111--9-------------
-22-222--1111-111111--9-------------
-00-000--9-9--9-9-9---7--------------
play once
-------------------------------------
-------------------------------------
-------------------------------------
-777--999--222--444--777--999---------
-777--999--222--444--777--999---------
-555--777--000--222--555--777---------

chorus
-----------------------------------
-----------------------------------
-----------------------------------
-22222222---6666--7777---99999999--
-22222222---6666--7777---99999999--
-00000000---4444--5555---77777777--

---------------------
---------------------
[---palm mute--------]
[66-6-77-7-99-9------]
[66-6-77-7-99-9------]
[44-4-55-5-77-7------]


i think thats pretty close corrections or comments
email [email protected]


Текст, аккорды и табулатура для песни "The Goonies Are Good Enough", исполняет "New Found Glory".
Используемые в песне аккорды можно найти в разделе Как брать аккорды. Аккорды для шестиструнной гитары. Другие песни можно найти на нашем сайте, воспользовавшись алфавитным указателем вверху страницы.


 
Ошибка в тексте? Выделите ошибку и нажмите Ctrl+Enter