Match tabbed this

Note: Chords do this song much better justice, and as you only have to learn
one placement for your fingers, it's pretty simple...

Verse
(clean)
E|-----------------|
A|-----------------|
D|-----------------|
G|-7-7-7-5-5-5-5-5-|
B|-7-7-7-5-5-5-5-5-|
E|-5-5-5-3-3-3-3-3-| x19 (wow a lot eh)

Into Chorus
E|-----------|
A|-----------|
D|-----------|
G|-7-7-7-7-7-|
B|-7-7-7-7-7-|
E|-5-5-5-5-5-|

Chorus

E|-------------------------------|        |----------------|
A|-------------------------------|        |----------------|
D|-------------------------------|        |----------------|
G|-5-5-5-5-5-9-9-7-7-7-7-7-7-9-9-|        |-10-10-10-10-10-|
B|-5-5-5-5-5-9-9-7-7-7-7-7-7-9-9-|at the  |-10-10-10-10-10-|
E|-3-3-3-3-3-7-7-5-5-5-5-5-5-7-7-|end play|-8--8--8--8--8--|

Bridge

E|--------------------------------------------------------------------------|
B|--------------------------------------------------------------------------|
G|-7777777-999-11111111-99999999-11111111-12121212-14141414141414-16161616--|
D|-7777777-999-11111111-99999999-11111111-12121212-14141414141414-16161616--|
A|-5555555-777-9-9-9-9--77777777-9-9-9-9--10101010-12121212121212-14141414--|
E|--------------------------------------------------------------------------|

E|--------------------------------------------------------------------|
B|--------------------------------------------------------------------|
G|-14141414-99999999-11111111-12121212121212---55555------------------|
D|-14141414-99999999-11111111-12121212121212---55555------------------|
A|-12121212-77777777-9-9-9-9--10101010101010---33333------------------|
E|--------------------------------------------------------------------|

To play the song (accurately) you'll have to play it like this:
Verse
Chorus
Verse
Chorus x2
Bridge
Chorus x2

Enjoy


Текст, аккорды и табулатура для песни "No New Is Good News", исполняет "New Found Glory".
Используемые в песне аккорды можно найти в разделе Как брать аккорды. Аккорды для шестиструнной гитары. Другие песни можно найти на нашем сайте, воспользовавшись алфавитным указателем вверху страницы.


 
Ошибка в тексте? Выделите ошибку и нажмите Ctrl+Enter