New Found Glory - My Friends Over You
tabbed by Dark_Angel
email : [email protected]

standar tunningd (EADGBe)

pm *
pick scratch ~
slide /

intro 

lead
|-------------------------------|-------------------------------|
|---5-5-7-5---5---5-7-5---------|---5-5-7-5---5---5-7-5---------|
|----7-----7-7-7-7-----7-7-7----|----7-----7-7-7-7-----7-7-7----|
|-------------------------------|-------------------------------|
|-------------------------------|-------------------------------|
|-------------------------------|-------------------------------|

rhythem
|-------------------------------|-------------------------------|
|-------------------------------|-------------------------------|
|---7-7-7-----7--7--7-----------|-------------------------------|
|---7-7-7-----7--7--7-----------|---5-5-5-----5--5--5-----------|
|---5-5-5-----5--5--5-----------|---5-5-5-----5--5--5-----------|
|-------------------------------|---3-3-3-----3--3--3-----------|
              *  *                            *  *


lead
|-------------------------------|-------------------------------|
|---5-5-7-5---5---5-7-5---------|---5---5-7-5----5-5------------|
|----7-----7-7-7-7-----7-7-7----|-----7------7-7--7-------------|
|-------------------------------|-------------------------------|
|-------------------------------|-------------------------------|
|-------------------------------|-------------------------------|

rhythem
|-------------------------------|-------------------------------|
|-------------------------------|-------------------------------|
|---7-7-7-----7--7--7-----------|-------------------------------|
|---7-7-7-----7--7--7-----------|---5-5-5-----5--5--5-----------|
|---5-5-5-----5--5--5-----------|---5-5-5-----5--5--5-----------|
|-------------------------------|---3-3-3-----3--3--3-----------|
              *  *                            *  *
verse 1

lead
|-------------------------------|-------------------------------|
|-------------------------------|-------------------------------|
|---7-7-7-----7--7--7-----------|-------------------------------|
|---7-7-7-----7--7--7-----------|---5-5-5-----5--5--5-----------|
|---5-5-5-----5--5--5-----------|---5-5-5-----5--5--5-----------|
|-------------------------------|---3-3-3-----3--3--3-----------|
              *  *                            *  *
rhythem
|-------------------------------|-------------------------------|
|-------------------------------|-------------------------------|
|---7-7-7-----7--7--7-----------|-------------------------------|
|---7-7-7-----7--7--7-----------|---5-5-5-----5--5--5-----------|
|---5-5-5-----5--5--5-----------|---5-5-5-----5--5--5-----------|
|-------------------------------|---3-3-3-----3--3--3-----------|
              *  *                            *  *


lead
|-------------------------------|-------------------------------|
|-------------------------------|-------------------------------|
|---7-7-7-----7--7--7-----------|--9--9--9-9--------------------|
|---7-7-7-----7--7--7-----------|--9--9--9-9---5--5--5-5-5------|
|---5-5-5-----5--5--5-----------|--7--7--7-7---5--5--5-5-5------|
|-------------------------------|--------------3--3--3-3-3------|
              *  *                                                 
rhythem
|-------------------------------|-------------------------------|
|-------------------------------|-------------------------------|
|---7-7-7-----7--7--7-----------|-------------------------------|
|---7-7-7-----7--7--7-----------|--2--2--2-2---5--5--5-5-5------|
|---5-5-5-----5--5--5-----------|--2--2--2-2---5--5--5-5-5------|
|-------------------------------|--0--0--0-0---3--3--3-3-3------|
              *  *


lead
|-------------------------------|-------------------------------|
|-------------------------------|-------------------------------|
|---7-7-7-----7--7--7-----------|-------------------------------|
|---7-7-7-----7--7--7-----------|---5-5-5-----5--5--5-----------|
|---5-5-5-----5--5--5-----------|---5-5-5-----5--5--5-----------|
|-------------------------------|---3-3-3-----3--3--3-----------|
              *  *                            *  *
rhythem
|-------------------------------|-------------------------------|
|-------------------------------|-------------------------------|
|---7-7-7-----7--7--7-----------|-------------------------------|
|---7-7-7-----7--7--7-----------|---5-5-5-----5--5--5-----------|
|---5-5-5-----5--5--5-----------|---5-5-5-----5--5--5-----------|
|-------------------------------|---3-3-3-----3--3--3-----------|
              *  *                            *  *


lead
|-------------------------------|-------------------------------|
|---5-5-7-5---5---5-7-5---------|-------------------------------|
|----7-----7-7-7-7-----7-7-7----|--9--9--9-9--------------------|
|-------------------------------|--9--9--9-9---5--5--5-5-5------|
|-------------------------------|--7--7--7-7---5--5--5-5-5------|
|-------------------------------|--------------3--3--3-3-3------|

rhythem
|-------------------------------|-------------------------------|
|-------------------------------|-------------------------------|
|---7-7-7-----7--7--7-----------|-------------------------------|
|---7-7-7-----7--7--7-----------|--2--2--2-2---5--5--5-5-5------|
|---5-5-5-----5--5--5-----------|--2--2--2-2---5--5--5-5-5------|
|-------------------------------|--0--0--0-0---3--3--3-3-3------|
              *  *
 

lead
|-------------------------------|-------------------------------|
|-------------------------------|-------------------------------|
|--9--9--9-9--------------------|--9--9--9-9--------------------|
|--9--9--9-9---5--5--5-5-5------|--9--9--9-9---5--5--5-5-5------|
|--7--7--7-7---5--5--5-5-5------|--7--7--7-7---5--5--5-5-5------|
|--------------3--3--3-3-3------|--------------3--3--3-3-3------|
                                                                    
rhythem
|-------------------------------|-------------------------------|
|-------------------------------|-------------------------------|
|-------------------------------|-------------------------------|
|--2--2--2-2---5--5--5-5-5------|--2--2--2-2---5--5--5-5-5------|
|--2--2--2-2---5--5--5-5-5------|--2--2--2-2---5--5--5-5-5------|
|--0--0--0-0---3--3--3-3-3------|--0--0--0-0---3--3--3-3-3------|




lead
|-------------------------------|-------------------------------|
|-------------------------------|-------------------------------|
|-------------------------------|-------------------------------|
|--7---7---7---7---7---7--------|--7---7---7--------------------|
|--7---7---7---7---7---7--------|--7---7---7--------------------|
|--5---5---5---5---5---5--------|--5---5---5--------------------|
                                                                    
rhythem
|-------------------------------|-------------------------------|
|-------------------------------|-------------------------------|
|-------------------------------|-------------------------------|
|--7---7---7---7---7---7--------|--7---7---7--------------------|
|--7---7---7---7---7---7--------|--7---7---7--------------------|
|--5---5---5---5---5---5--------|--5---5---5--------------------|

chorus

lead
|-------------------------------|-------------------------------|
|-------------------------------|-------------------------------|
|-7-7-7-7-7-7-7-7-7-7-7-7-7-7-7-|-------------------------------|
|-7-7-7-7-7-7-7-7-7-7-7-7-7-7-7-|-5-5-5-5-5-5-5-5-5-5-5-5-5-5-5-|
|-5-5-5-5-5-5-5-5-5-5-5-5-5-5-5-|-5-5-5-5-5-5-5-5-5-5-5-5-5-5-5-|
|-------------------------------|-3-3-3-3-3-3-3-3-3-3-3-3-3-3-3-|
                         
rhythem
|-------------------------------|-------------------------------|
|-------------------------------|-------------------------------|
|-7-7-7-7-7-7-7-7-7-7-7-7-7-7-7-|-------------------------------|
|-7-7-7-7-7-7-7-7-7-7-7-7-7-7-7-|-5-5-5-5-5-5-5-5-5-5-5-5-5-5-5-|
|-5-5-5-5-5-5-5-5-5-5-5-5-5-5-5-|-5-5-5-5-5-5-5-5-5-5-5-5-5-5-5-|
|-------------------------------|-3-3-3-3-3-3-3-3-3-3-3-3-3-3-3-|




lead
|-------------------------------|-------------------------------|
|-------------------------------|-------------------------------|
|-7-7-7-7-7-7-7-7-7-7-7-7-7-7-7-|-------------------------------|
|-7-7-7-7-7-7-7-7-7-7-7-7-7-7-7-|-5-5-5-5-5-5-5-5---------------|
|-5-5-5-5-5-5-5-5-5-5-5-5-5-5-5-|-5-5-5-5-5-5-5-5~~~~~~~~~~~~~~~|
|-------------------------------|-3-3-3-3-3-3-3-3~~~~~~~~~~~~~~~|
                         
rhythem
|-------------------------------|-------------------------------|
|-------------------------------|-------------------------------|
|-7-7-7-7-7-7-7-7-7-7-7-7-7-7-7-|-------------------------------|
|-7-7-7-7-7-7-7-7-7-7-7-7-7-7-7-|-5-5-5-5-5-5-5-5-5-5-5-5-5-5-5-|
|-5-5-5-5-5-5-5-5-5-5-5-5-5-5-5-|-5-5-5-5-5-5-5-5-5-5-5-5-5-5-5-|
|-------------------------------|-3-3-3-3-3-3-3-3-3-3-3-3-3-3-3-|


lead
|-------------------------------|-------------------------------|
|-------------------------------|-------------------------------|
|-4-4-4-4-4-4-4-4-4-6-6-6-7-7-7-|-------------------6-6-6-7-7-7-|
|-4-4-4-4-4-4-4-4-4-6-6-6-7-7-7-|-5-5-5-5-5-5-5-5-5-6-6-6-7-7-7-|
|-2-2-2-2-2-2-2-2-2-4-4-4-5-5-5-|-5-5-5-5-5-5-5-5-5-4-4-4-5-5-5-|
|-------------------------------|-3-3-3-3-3-3-3-3-3-------------|
                         
rhythem
|-------------------------------|-------------------------------|
|-------------------------------|-------------------------------|
|-4-4-4-4-4-4-4-4-4-4-4-4-4-4-4-|-------------------------------|
|-4-4-4-4-4-4-4-4-4-4-4-4-4-4-4-|-5-5-5-5-5-5-5-5-5-5-5-5-5-5-5-|
|-2-2-2-2-2-2-2-2-2-2-2-2-2-2-2-|-5-5-5-5-5-5-5-5-5-5-5-5-5-5-5-|
|-------------------------------|-3-3-3-3-3-3-3-3-3-3-3-3-3-3-3-|




lead
|-------------------------------|-------------------------------|
|-------------------------------|-------------------------------|
|-4-4-4-4-4-4-4-4-4-6-6-6-7-7-7-|-------------------------------|
|-4-4-4-4-4-4-4-4-4-6-6-6-7-7-7-|-----------------7-------------|
|-2-2-2-2-2-2-2-2-2-4-4-4-5-5-5-|-------------5---7-------------|
|-------------------------------|-3---2---0-------5-------------|
                         
rhythem
|-------------------------------|-------------------------------|
|-------------------------------|-------------------------------|
|-4-4-4-4-4-4-4-4-4-4-4-4-4-4-4-|-------------------------------|
|-4-4-4-4-4-4-4-4-4-4-4-4-4-4-4-|-5-5-5-5-5-5-5-5-7-------------|
|-2-2-2-2-2-2-2-2-2-2-2-2-2-2-2-|-5-5-5-5-5-5-5-5-7-------------|
|-------------------------------|-3-3-3-3-3-3-3-3-5-------------|

then repeat from the begining and when finish the 2nd time goes to the interlude 

interlude

lead                clean
|-------------------------------|-------------------------------|
|-------------------------------|-------------------------------|
|-------------------------------|-------------------------------|
|--0------0---------------------|--0------0---------------------|
|----------------2------2-------|----------------2------2-------|
|----2--3---2--3---2--3---7--5--|----2--3---2--3---2--3---7--5--|

rhythem           with distortion
|-------------------------------|-------------------------------|
|-------------------------------|-------------------------------|
|-------------------------------|-------------------------------|
|-------------------------------|--0------0---------------------|
|-------------------------------|----------------2------2-------|
|-------------------------------|----2--3---2--3---2--3---7--5--|




lead                                                  in this last measure the notes are really short
|-------------------------------|-------------------------------|
|-------------------------------|-------------------------------|
|-------------------------------|-------------------------------|
|--0------0---------------------|--5------5---------------------|
|----------------2------2-------|----------------2------2-------|
|----2--3---2--3---2--3---7--5--|----2--3---2--3---2--3---7--5--|

rhythem           		        
|-------------------------------|-------------------------------|
|-------------------------------|-------------------------------|
|-------------------------------|-------------------------------|
|--0------0---------------------|--5------5---------------------|
|----------------2------2-------|----------------2------2-------|
|----2--3---2--3---2--3---7--5--|----2--3---2--3---2--3---7--5--|




lead   really clean
|-------------------------------|-------------------------------|
|-------------------------------|-------------------------------|
|-------------------------------|-------------------------------|
|--5--5-5-5-x-5--5-5-5--5-5--x--|--5--5-5-5-x-5--5-5-5--5-5--x--|
|--5--5-5-5-x-5--5-5-5--5-5--x--|--5--5-5-5-x-5--5-5-5--5-5--x--|
|--0--0-0-0-x-3--3-3-3--3-3--x--|--0--0-0-0-x-0--0-0-0--0-0--x--|

rhythem
|-------------------------------|-------------------------------|
|-------------------------------|-------------------------------|
|-------------------------------|-------------------------------|
|-------------------------------|-------------------------------|
|-------------------------------|-------------------------------|
|-------------------------------|-------------------------------|




lead			         distortion again
|-------------------------------|-------------------------------|
|-------------------------------|-------------------------------|
|-------------------------------|-------------------------------|
|--5--5-5-5-x-5--5-5-5--5-5--x--|--7-7-7-7-7-7-7-7-7-7----------|
|--5--5-5-5-x-5--5-5-5--5-5--x--|--7-7-7-7-7-7-7-7-7-7----------|
|--0--0-0-0-x-3--3-3-3--3-3--x--|--5-5-5-5-5-5-5-5-5-5----------|

rhythem
|-------------------------------|-------------------------------|
|-------------------------------|-------------------------------|
|-------------------------------|-------------------------------|
|-------------------------------|--7-7-7-7-7-7-7-7-7-7----------|
|-------------------------------|--7-7-7-7-7-7-7-7-7-7----------|
|-------------------------------|--5-5-5-5-5-5-5-5-5-5----------|

chorus

lead
|-------------------------------|-------------------------------|
|-------------------------------|-------------------------------|
|-7-7-7-7-7-7-7-7-7-7-7-7-7-7-7-|-------------------------------|
|-7-7-7-7-7-7-7-7-7-7-7-7-7-7-7-|-5-5-5-5-5-5-5-5-5-5-5-5-5-5-5-|
|-5-5-5-5-5-5-5-5-5-5-5-5-5-5-5-|-5-5-5-5-5-5-5-5-5-5-5-5-5-5-5-|
|-------------------------------|-3-3-3-3-3-3-3-3-3-3-3-3-3-3-3-|
                         
rhythem
|-------------------------------|-------------------------------|
|-------------------------------|-------------------------------|
|-7-7-7-7-7-7-7-7-7-7-7-7-7-7-7-|-------------------------------|
|-7-7-7-7-7-7-7-7-7-7-7-7-7-7-7-|-5-5-5-5-5-5-5-5-5-5-5-5-5-5-5-|
|-5-5-5-5-5-5-5-5-5-5-5-5-5-5-5-|-5-5-5-5-5-5-5-5-5-5-5-5-5-5-5-|
|-------------------------------|-3-3-3-3-3-3-3-3-3-3-3-3-3-3-3-|




lead
|-------------------------------|-------------------------------|
|-------------------------------|-------------------------------|
|-7-7-7-7-7-7-7-7-7-7-7-7-7-7-7-|-------------------------------|
|-7-7-7-7-7-7-7-7-7-7-7-7-7-7-7-|-5-5-5-5-5-5-5-5---------------|
|-5-5-5-5-5-5-5-5-5-5-5-5-5-5-5-|-5-5-5-5-5-5-5-5~~~~~~~~~~~~~~~|
|-------------------------------|-3-3-3-3-3-3-3-3~~~~~~~~~~~~~~~|

rhythem
|-------------------------------|-------------------------------|
|-------------------------------|-------------------------------|
|-7-7-7-7-7-7-7-7-7-7-7-7-7-7-7-|-------------------------------|
|-7-7-7-7-7-7-7-7-7-7-7-7-7-7-7-|-5-5-5-5-5-5-5-5-5-5-5-5-5-5-5-|
|-5-5-5-5-5-5-5-5-5-5-5-5-5-5-5-|-5-5-5-5-5-5-5-5-5-5-5-5-5-5-5-|
|-------------------------------|-3-3-3-3-3-3-3-3-3-3-3-3-3-3-3-|




lead
|-------------------------------|-------------------------------|
|-------------------------------|-------------------------------|
|-4-4-4-4-4-4-4-4-4-6-6-6-7-7-7-|-------------------6-6-6-7-7-7-|
|-4-4-4-4-4-4-4-4-4-6-6-6-7-7-7-|-5-5-5-5-5-5-5-5-5-6-6-6-7-7-7-|
|-2-2-2-2-2-2-2-2-2-4-4-4-5-5-5-|-5-5-5-5-5-5-5-5-5-4-4-4-5-5-5-|
|-------------------------------|-3-3-3-3-3-3-3-3-3-------------|
                         
rhythem
|-------------------------------|-------------------------------|
|-------------------------------|-------------------------------|
|-4-4-4-4-4-4-4-4-4-4-4-4-4-4-4-|-------------------------------|
|-4-4-4-4-4-4-4-4-4-4-4-4-4-4-4-|-5-5-5-5-5-5-5-5-5-5-5-5-5-5-5-|
|-2-2-2-2-2-2-2-2-2-2-2-2-2-2-2-|-5-5-5-5-5-5-5-5-5-5-5-5-5-5-5-|
|-------------------------------|-3-3-3-3-3-3-3-3-3-3-3-3-3-3-3-|




lead
|-------------------------------|-------------------------------|
|-------------------------------|-------------------------------|
|-4-4-4-4-4-4-4-4-4-6-6-6-7-7-7-|-------------------------------|
|-4-4-4-4-4-4-4-4-4-6-6-6-7-7-7-|-----------------7-------------|
|-2-2-2-2-2-2-2-2-2-4-4-4-5-5-5-|-------------5---7-------------|
|-------------------------------|-3---2---0-------5-------------|
                         
rhythem
|-------------------------------|-------------------------------|
|-------------------------------|-------------------------------|
|-4-4-4-4-4-4-4-4-4-4-4-4-4-4-4-|-------------------------------|
|-4-4-4-4-4-4-4-4-4-4-4-4-4-4-4-|-5-5-5-5-5-5-5-5-7-------------|
|-2-2-2-2-2-2-2-2-2-2-2-2-2-2-2-|-5-5-5-5-5-5-5-5-7-------------|
|-------------------------------|-3-3-3-3-3-3-3-3-5-------------|

chorus

lead
|-------------------------------|-------------------------------|
|-------------------------------|-------------------------------|
|-7-7-7-7-7-7-7-7-7-7-7-7-7-7-7-|-------------------------------|
|-7-7-7-7-7-7-7-7-7-7-7-7-7-7-7-|-5-5-5-5-5-5-5-5-5-5-5-5-5-5-5-|
|-5-5-5-5-5-5-5-5-5-5-5-5-5-5-5-|-5-5-5-5-5-5-5-5-5-5-5-5-5-5-5-|
|-------------------------------|-3-3-3-3-3-3-3-3-3-3-3-3-3-3-3-|
                         
rhythem
|-------------------------------|-------------------------------|
|-------------------------------|-------------------------------|
|-7-7-7-7-7-7-7-7-7-7-7-7-7-7-7-|-------------------------------|
|-7-7-7-7-7-7-7-7-7-7-7-7-7-7-7-|-5-5-5-5-5-5-5-5-5-5-5-5-5-5-5-|
|-5-5-5-5-5-5-5-5-5-5-5-5-5-5-5-|-5-5-5-5-5-5-5-5-5-5-5-5-5-5-5-|
|-------------------------------|-3-3-3-3-3-3-3-3-3-3-3-3-3-3-3-|




lead
|-------------------------------|-------------------------------|
|-------------------------------|-------------------------------|
|-7-7-7-7-7-7-7-7-7-7-7-7-7-7-7-|-------------------------------|
|-7-7-7-7-7-7-7-7-7-7-7-7-7-7-7-|-5-5-5-5-5-5-5-5---------------|
|-5-5-5-5-5-5-5-5-5-5-5-5-5-5-5-|-5-5-5-5-5-5-5-5~~~~~~~~~~~~~~~|
|-------------------------------|-3-3-3-3-3-3-3-3~~~~~~~~~~~~~~~|
                         
rhythem
|-------------------------------|-------------------------------|
|-------------------------------|-------------------------------|
|-7-7-7-7-7-7-7-7-7-7-7-7-7-7-7-|-------------------------------|
|-7-7-7-7-7-7-7-7-7-7-7-7-7-7-7-|-5-5-5-5-5-5-5-5-5-5-5-5-5-5-5-|
|-5-5-5-5-5-5-5-5-5-5-5-5-5-5-5-|-5-5-5-5-5-5-5-5-5-5-5-5-5-5-5-|
|-------------------------------|-3-3-3-3-3-3-3-3-3-3-3-3-3-3-3-|



lead
|-------------------------------|-------------------------------|
|-------------------------------|-------------------------------|
|-4-4-4-4-4-4-4-4-4-6-6-6-7-7-7-|-------------------6-6-6-7-7-7-|
|-4-4-4-4-4-4-4-4-4-6-6-6-7-7-7-|-5-5-5-5-5-5-5-5-5-6-6-6-7-7-7-|
|-2-2-2-2-2-2-2-2-2-4-4-4-5-5-5-|-5-5-5-5-5-5-5-5-5-4-4-4-5-5-5-|
|-------------------------------|-3-3-3-3-3-3-3-3-3-------------|
                         
rhythem
|-------------------------------|-------------------------------|
|-------------------------------|-------------------------------|
|-4-4-4-4-4-4-4-4-4-4-4-4-4-4-4-|-------------------------------|
|-4-4-4-4-4-4-4-4-4-4-4-4-4-4-4-|-5-5-5-5-5-5-5-5-5-5-5-5-5-5-5-|
|-2-2-2-2-2-2-2-2-2-2-2-2-2-2-2-|-5-5-5-5-5-5-5-5-5-5-5-5-5-5-5-|
|-------------------------------|-3-3-3-3-3-3-3-3-3-3-3-3-3-3-3-|

outro

lead
|-------------------------------|-------------------------------|
|---5-5-7-5---5---5-7-5---------|-5-5-7-5---5---5-7-5-----------|
|----7-----7-7-7-7-----7-7-7----|--7-----7-7-7-7-----7-7-7------|
|-------------------------------|-------------------------------|
|-------------------------------|-------------------------------|
|-------------------------------|-------------------------------|

rhythem
|-------------------------------|-------------------------------|
|-------------------------------|-------------------------------|
|---7-7-7-----7--7--7-----------|-------------------------------|
|---7-7-7-----7--7--7-----------|---5-5-5-----5--5--5-----------|
|---5-5-5-----5--5--5-----------|---5-5-5-----5--5--5-----------|
|-------------------------------|---3-3-3-----3--3--3-----------|
              *  *                            *  *


lead
|-------------------------------|-------------------------------|
|---5-5-7-5---5---5-7-5---------|---5---5-7-5----5-5------------|
|----7-----7-7-7-7-----7-7-7----|-----7------7-7--7-------------|
|-------------------------------|-------------------------------|
|-------------------------------|-------------------------------|
|-------------------------------|-------------------------------|

rhythem
|-------------------------------|-------------------------------|
|-------------------------------|-------------------------------|
|---7-7-7-----7--7--7-----------|-------------------------------|
|---7-7-7-----7--7--7-----------|---5-5-5-----5--5--5-----------|
|---5-5-5-----5--5--5-----------|---5-5-5-----5--5--5-----------|
|-------------------------------|---3-3-3-----3--3--3-----------|
              *  *                            *  *

i have this tab for bass too


Текст, аккорды и табулатура для песни "My Friends Over You (ver 9)", исполняет "New Found Glory".
Используемые в песне аккорды можно найти в разделе Как брать аккорды. Аккорды для шестиструнной гитары. Другие песни можно найти на нашем сайте, воспользовавшись алфавитным указателем вверху страницы.


 
Ошибка в тексте? Выделите ошибку и нажмите Ctrl+Enter