THIS SACRAMENT - transcribed by Tim Calvert 


  
open E-strings are muted    
-----6---------------------------------------------------------------
----b10-----------------------6--------------------------------------
------------------9----------b10-----------9-------------------------
------------------x------------------------x-------------------------
------------------7------------------------7-------------------------
---------0-0-0-0----0-0-0-0------0-0-0--0-----0-0-0-0----------------


            
                                   first end     second end
----------------------------------|-------------|--------------------
----------------------------------|-------------|--------------------
----------------------------------|-------------|--------------------
----------------------------------|-------------|--------------------
----------------------------------|-------------|--0-8h10p8----------
-----0-0-0-0--1p0--0-0-0--4--0-0--|--1pp0-(0)---|--------------------



A SECTION                     (first end)    (second end)


Текст, аккорды и табулатура для песни "This Sacrament", исполняет "Nevermore".
Используемые в песне аккорды можно найти в разделе Как брать аккорды. Аккорды для шестиструнной гитары. Другие песни можно найти на нашем сайте, воспользовавшись алфавитным указателем вверху страницы.


 
Ошибка в тексте? Выделите ошибку и нажмите Ctrl+Enter