E --------0---------0--------0---------------
B ----1-3---3-1-0-----1-3--0---3-1--0-3-1-0--
G --2-------------2--------------------------

E --------0---------5-3--0-5-3-1----3-1-0----
B ----1-3---3-1-0-----------------3----------
G --2-------------2--------------------------

E --------0---------0--------0-----------------
B ----1-3---3-1-0-----1-3--0---3-1-0-3-1-0-----
G --2-------------2------------------------0-2-

´Генералы песчаных карьеров´

Я начал жизнь в трущобах городских,
И добрых слов я не слыхал. 
Когда ласкали вы детей своих- 
Я есть просил, я замерзал. 
Вы увидав меня не прячьте взгляд 
Ведь я ни в чем, ни в чем не виноват. 

За что вы бросили меня, за что? 
Где мой очаг? Где мой ночлег? 
Не признаете вы мое родство, 
А я вам брат, я человек. 
Вы вечно молитесь своим богам, 
И ваши боги все прощают вам. 

Проигрыш. 

Край небоскребов и роскошных вилл, 
Из окон льет слепящий свет. 
О, если б мне хоть раз набраться сил, 
Вы б дали мне за все ответ. 
Откройте двери, люди, я ваш брат 
Ведь я ни в чем, ни в чем не виноват. 

Проигрыш. 

Вы знали ласки матерей родных, 
А я не знал и лишь во сне, 
В моих мечтаньях детских золотых 
Мать иногда являлась мне. 
О мама если бы найти тебя, 
Была б не так горька моя судьба. 




Текст, аккорды и табулатура для песни "Генералы песчаных карьеров", исполняет "Несчастный Случай".
Используемые в песне аккорды можно найти в разделе Как брать аккорды. Аккорды для шестиструнной гитары. Другие песни можно найти на нашем сайте, воспользовавшись алфавитным указателем вверху страницы.


 
Ошибка в тексте? Выделите ошибку и нажмите Ctrl+Enter