-------------------------------------------------------------------------------
Pervert – Nerf Herder
-------------------------------------------------------------------------------

I just found this on a cd of mine and it’s a cool song nice and easy
to play so I thought I’d tab it out for ya’ll as it’s not on here,
remember no flaming if it’s a bad tab!
 
Intro and Chorus  
e|--------------------------------------------------------------|
B|--------------------------------------------------------------|
G|-999999--------999999--------999999--------555555-------------|
D|-999999-555555-999999-555555-999999-555555-555555-777777------|
A|-777777-555555-777777-555555-777777-555555-333333-777777------|
E|--------333333--------333333--------333333--------555555------|
(you can play that as wll if you like)
e|--------------------------------------------------------------|
B|--------------------------------------------------------------|
G|-------------------------------------------555555-------------|
D|-222222-555555-222222-555555-222222-555555-555555-777777------|
A|-222222-555555-222222-555555-222222-555555-333333-777777------|
E|-000000-333333-000000-333333-000000-333333--------555555------|

Verse
e|-------------------------------------------------------------|
B|-------------------------------------------------------------|
G|--------444444-555555--------555555--------555555------------|
D|-555555-444444-555555-555555-555555-555555-555555-777777-----|
A|-555555-222222-333333-555555-333333-555555-333333-777777-----|
E|-333333---------------333333--------333333--------555555-----|
   ****** ****** ****** ****** ****** ****** ****** ******

Bridge 1
e|--------------------------------------|
B|--------------------------------------|
G|---------------555555-----------------|
D|-555555-222222-555555-777777----------|
A|-555555-222222-333333-777777----------|
E|-333333-000000--------555555----------|

Bridge 2
e|------------------------------------------------|
B|------------------------------------------------|
G|-99999999---12-12-12-12-12-12-12-12-------------|
D|-xxxxxxxx---x--x--x--x--x--x--x--x--------------|
A|-77777777---10-10-10-10-10-10-10-10-------------|
E|------------------------------------------------|

Bridge 3
e|-3---2---3---3---3---3---3---5---3---2--3--3--------------|
B|-3---3---5---3---5---3---5---7---3---3--5--3--------------|
G|-4---4---5---4---5---4---5---7---4---4--5--4----5


Текст, аккорды и табулатура для песни "Pervert", исполняет "Nerf Herder".
Используемые в песне аккорды можно найти в разделе Как брать аккорды. Аккорды для шестиструнной гитары. Другие песни можно найти на нашем сайте, воспользовавшись алфавитным указателем вверху страницы.


 
Ошибка в тексте? Выделите ошибку и нажмите Ctrl+Enter