Nerf Herder - Coutrney
Tabbed By: Daniel Taylor
EMail: [email protected]


Intro and Verses

G-------------------------------------------------------------------
D-------------------------------------------------------------------
A--------3-3-3-3-3-3-3-3--------------------------------------------
E--5--3-------------------3-3-3-3-3-3-3-3--5-5-5-5-5-5-5-5---5--3---

Pre-chorus

G------------------------------------
D------------------------------------
A------------------------------------
E---1----------------3---------------

Chorus

G----------------------------------------------------
D----------------------------------------------------
A--3-3-3-3-3-3--------------5-5-5-5-5-5--------------
E--------------1-1-1-1-1-1---------------3-3-3-3-3-3-

After first chorus

G--------------------------------------------------
D--------------------------------------------------
A---------7-7--5-5----3-3--5-5--7-7----------------
E---1-1--------------------------------------------

Before final chorus

G--------------------------------------------------
D--------------------------------------------------
A--3~-------------3~-----------3-3-3-3-3-3-3-------
E--------------------------------------------------

Outro

G--------------------------------------------------
D--------------------------------------------------
A---------7-7--5-5----3-3--5-5--7-7----------------
E---1-1--------------------------------------------


Текст, аккорды и табулатура для песни "Courtney", исполняет "Nerf Herder".
Используемые в песне аккорды можно найти в разделе Как брать аккорды. Аккорды для шестиструнной гитары. Другие песни можно найти на нашем сайте, воспользовавшись алфавитным указателем вверху страницы.


 
Ошибка в тексте? Выделите ошибку и нажмите Ctrl+Enter