X2
E|--------------------------------------------------------------------
B|--------------------------------------------------------------------
G|-5-5-5-5-5-5-5-5-7-8-3-3-3-3-3-3-3-3x3-3-3-3-3-3-3-5-6-3-3-3-3-3-3--
D|--------------------------------------------------------------------
                             
  X1
E|----2--p0---0-2-0------0-2-0----------------------------------------
B|----------2----------2-------2--------------------------------------
G|-0------------------------------2--2--2--2--------------------------
D|-------------------0------------------------------------------------

  X1
E|--------------------------------------------------------------------
B|--------------------------------------------------------------------
G|--------------------------------------------------------------------
D|-5-5-5-5-5-5-5-5-7-8-3-3-3-3-3-3-3-3x3-3-3-3-3-3-3-5-6-3-3-3-3-3-3--


 continued
E|--------------------------------------------------------------------
B|--------------------------------------------------------------------
G|-4-4-4-4-4-4--------------------------------------------------------
D|-------------0---0---0----------------------------------------------

Ok, the three with the ‘x’ before it, play it with a finger on the string just
so it sounds dead and dull. listen to the song to find out how long to play the
note. That’s pretty much it.


Текст, аккорды и табулатура для песни "Buffy The Vampire Slayer Theme", исполняет "Nerf Herder".
Используемые в песне аккорды можно найти в разделе Как брать аккорды. Аккорды для шестиструнной гитары. Другие песни можно найти на нашем сайте, воспользовавшись алфавитным указателем вверху страницы.


 
Ошибка в тексте? Выделите ошибку и нажмите Ctrl+Enter