T1: James Cook, [email protected], Nerf Herder, Buffy the Vampire
Slayer theme tune

S1: My first tabb, I hpe it fits the bill,      E5                     
G5           B5               D5
e------------------------------------------------------------
b------------------------------------------------------------
g----9-----------11----12----7-----------7--7------9---11---7  
d------------------------------------------------------------
a----7-----------9-----10----5-----------5--5------7---9----5
e------------------------------------------------------------
 
               Reapeat all
     Am                    Em           B5
e----5----------7------5-------------------------------------
b---------------------------8----------8---7-7-7-7-7-7-7-7-7-
g------------------------------------------------------------
d------------------------------------------------------------
a------------------------------------------------------------
e------------------------------------------------------------

    E5                     
e-----------------------------12
b---12-----12-----12----12-15---
g---14(16)-14(16)-14(16)--------         repeat (G5)
d-------------------------------     
a-------------------------------
e-------------------------------

    B5
e-----------------------------10
b---10-----10-----10----19-12---
g---12(14)-12(14)-12(14)--------         repeat (D5)
d-------------------------------
a-------------------------------
e-------------------------------

    Eb5
e---11-11-11-11-11-11-11-11-----
b---11-11-11-11-11-11-11-11-----
g---13-13-13-13-13-13-13-13-----
d-------------------------------
a-------------------------------
e-------------------------------

    E5
e-------------------------------
b-------------------------------
g---9---------------------------
d---9----------2-----------2----
a---7----------2-----------2----
e--------------0-----------0----

the chords used in the backgroung are power chords:

E5 :022XXX
G5 :355XXX
B5 :X244XX
D5 :X577XX 
Am :577XXX
Eb5:X688XX


Текст, аккорды и табулатура для песни "Buffy The Vampire Slayer Theme", исполняет "Nerf Herder".
Используемые в песне аккорды можно найти в разделе Как брать аккорды. Аккорды для шестиструнной гитары. Другие песни можно найти на нашем сайте, воспользовавшись алфавитным указателем вверху страницы.


 
Ошибка в тексте? Выделите ошибку и нажмите Ctrl+Enter