Вступление:

                             F                        C
e||-----------------------|------------------------|--------------------------|
H||-----------------------|--10------------13--12--|--------------------------|
G||---------------------9-|------------------------|--12--------------------9-|
D||--------------7-9-10---|------------------------|----------------9-10-12---|
A||-----------------------|------------------------|--------------------------|
E||-----------------------|------------------------|--------------------------|
                                              
   Dm      F    G        Am
|---------------------|----------------------||
|---------------------|----------------------||
|--7------------------|----------------------|| \
|---------------10----|--10-9-7--------------|| / 2 раза
|---------------------|----------------------||
|---------------------|----------------------||

              F            C 
Напои меня водой твоей любви,
 Dm    F        G    Am
Чистой,  как душа младенца.
Прилети ко мне стрелой, восхитительной стрелой
В сердце, в сердце.

Dm               G       C   C/H   Am 
   Я читаю твой шифр, скрытый в словах
   На бледном бумажном листке.
   Я закрываю глаза и чувствую ветер,
     Dm    Dm/E  Dm/F Dm/G   G 
   Забытый      тобой на песке.

Проигрыш = Вступление

Ты видишь, как пляшут огни индейских костров 
На лицах вождей умерших племен.
Там, где замкнулся круг, где волос пронзило перо
Я танцую танец огня. 

   Погляди на меня и белым крылом 
   Птицы Сирин коснись ручья,
   И рассвет поцелует зарю,
   А заря разбудит свирель и позовет меня. 

Проигрыш = Вступление

Dm Dm/E Dm/F  Dm/G        G 
Я            слышу твой звук, 
          C      Am  C Am 
Чувствую запах твой. 
Dm Dm/E Dm/F    Dm/G  G                C
Я            сплетаю сеть из пугливых нот, 
                   E7 
Чтоб ловить твой смех. 

Проигрыш = Вступление

Напои меня водой твоей любви 
Твоей любви, твоей любви. 
Прилети ко мне стрелой твоей любви,
Твоей любви, твоей любви!
	
	
	        
Комментарий автора: Оригинальная тональность - Bm

Текст, аккорды и табулатура для песни "Напои меня водой", исполняет "Неприкасаемые".
Используемые в песне аккорды можно найти в разделе Как брать аккорды. Аккорды для шестиструнной гитары. Другие песни можно найти на нашем сайте, воспользовавшись алфавитным указателем вверху страницы.


Слушать онлайн Напои меня водой


Гарик СукачёвНапои меня водой на Яндекс.Музыке


 
Ошибка в тексте? Выделите ошибку и нажмите Ctrl+Enter