-------------------------------------------------------------------------------
			     WHO KILLED THE CHEERLEADER? - Nekromantix
-------------------------------------------------------------------------------
Tabbed by: SPIKEstrip (based on a tab by xxxAntiFlagxxx)
Email: [email protected]

Tuning: Standard (EADGBe)

Intro

e|---------------------------------------------------------------------------|
B|---------------------------------------------------------------------------|
G|---------------------------------------------------------------------------|
D|-8/10---------------------------------------------------------------------|
A|-8/10------------8--8h10--8--65-----6--8--8h10--8--65-----6--8--8h10--10|
E|-6/8-------8--11------------------6----------------------6----------------|

e|---------------------------------------------------------------------------|
B|---------------------------------------------------------------------------|
G|---------------------------------------------------------------------------|
D|-6-66-8-88-----------------------------------------------------------------|
A|-6-66-8-88-------8--8h10--8--65-----6--8--8h10--8--65-----6--8--8h10--10-|
E|-4-44-6-66-8--11------------------6----------------------6-----------------|

e|---------------------------------------------------------------------------|
B|---------------------------------------------------------------------------|
G|---------------------------------------------------------------------------|
D|-6-66-6-66-3-33-3-33-3-33-3-3----------------------------------------------|
A|-6-66-6-66-3-33-3-33-3-33-3-3----------------------------------------------|
E|-4-44-4-44-1-11-1-11-1-11-1-1----------------------------------------------|

| /  slide up
|   slide down
| h  hammer-on
===============================================================================


Текст, аккорды и табулатура для песни "Who Killed The Cheerleader", исполняет "Nekromantix".
Используемые в песне аккорды можно найти в разделе Как брать аккорды. Аккорды для шестиструнной гитары. Другие песни можно найти на нашем сайте, воспользовавшись алфавитным указателем вверху страницы.


 
Ошибка в тексте? Выделите ошибку и нажмите Ctrl+Enter