-------------------------------------------------------------------------------
			     nice day for a resurrection - necromantix
-------------------------------------------------------------------------------

Tabbed by:Billy
Email:[email protected]

Tuning:standard
   intro:
e|------2-----2-----2-----2-----2-----2-----2-----2-----2-----2-----2-----2-|
B|--0h3---0h3---0h3---0h3---0h3---0h2---0h2---0h2---0h2---0h2---0h3---0h3---|
G|--------------------------------------------------------------------------|
D|--------------------------------------------------------------------------|
A|--------------------------------------------------------------------------|
E|--------------------------------------------------------------------------|

e|------2-----2-----2-----4-----4-----4-----4-----4------2-----2-----2-----2|
B|--0h3---0h3---0h3---0h5---0h5---0h5---0h5---0h5----0h3---0h3---0h2---0h2--|
G|--------------------------------------------------------------------------|
D|--------------------------------------------------------------------------|
A|--------------------------------------------------------------------------|
E|--------------------------------------------------------------------------|

e|----------2~----2--2--2--2--0-----------2-2-2-2-2-2-2-2-2-0-0-------------|
B|----------0~----0--3--0--2--0--3--2-----0-3-0-3-0-2-0-2-0-0-0--3/2/0------|
G|-------------------------------2--1--4-------------------------2/1/0--4-4-|
D|--4--3/4-----------------------------4--------------------------------4-4-|
A|--2--1/2------------------------------------------------------------------|
E|--------------------------------------------------------------------------|

e|--------------------------------------------------------------|
B|---7-9_10-9-7---7-9_10-9-7---7-9_10-9-7-----------------------|
G|---7-9_10-9-7---7-9_10-9-7---7-9_10-9-7-----------------------|
D|--------------------------------------------------------------|
A|--9------------5------------2------------4-5-4-5-4-5--9-------|
E|--7------------3------------0------------2-3-2-3-2-3--7-------|
    im alive....ect.
e|----------------------------------------------------------------------|
B|----------------------------------------------------------------------|
G|-------------------------------4--------------------------------------|
D|----------------------2----------5---------------------2--------------|
A|--9-------2/5--------2--------5-------9-----2/5-------2---4-5-4-5-4-5-|
E|--7----------3------0--------3--------7--------3-----0----2-3-2-3-2-3-|
   i woke up... ect.
e|----------------------------------------------------------------------|
B|----------------------------------------------------------------------|
G|----------------------------------------------------------------------|
D|----------------------------------------------------------------------|
A|-9-xx-xx-xx-8/9-xx-xx-xx-8/9-xx-xx-xx--9-9-8-8-7-7-6-6-7-7-6-6-7-7-8-9|
E|-7-xx-xx-xx-6/7-xx-xx-xx-6/7-xx-xx-xx--7-7-6-6-5-5-4-4-5-5-4-4-5-5-6-7|
   c'mon lick my bones....ect
e|------------------------|
B|------------------------|
G|------------------------|
D|---------13----11-------|
A|--11-----11----9----11--|
E|--9-----------------9---|
 nice day for a resurrection! part

ok with all the part above you can play 
the intire song just got to move them around a little 
*exept i didnt put the solo ...next time mybe   billy

| _  bend to note that follows
| /  slide up
|   slide down
| h  hammer-on
| p  pull-off
| ~  vibrato
| +  harmonic
| x  Mute note

===============================================================================


Текст, аккорды и табулатура для песни "Nice Day For A Resurrection", исполняет "Nekromantix".
Используемые в песне аккорды можно найти в разделе Как брать аккорды. Аккорды для шестиструнной гитары. Другие песни можно найти на нашем сайте, воспользовавшись алфавитным указателем вверху страницы.


 
Ошибка в тексте? Выделите ошибку и нажмите Ctrl+Enter