g--------------------------------------------------------------------|
d-------------------------------------------0---2--------------------|
a--------------------------------------------------------------------|
e-----3-----5---5-----3--3----3---4---5------------------------------|

(3x)

g--------------------------------------------------------------------|
d----------------------------------------0---2-----------------------|
a---------------------------------------------------0----------------|
e---5---5-----3---3------3----4----5---------------------------------|

stop playin while lyrics are on on 3 time dont play the open a

(3x)
g--|----------------------------|--------------------------------------|
d--|----------------------------|--------------------------------------|
a--|-5--5------------5-5---------|-------------------------------------|
e--|---------2--2-----------2--2--|---4--4-----3--3---22---------------|

last time play through to end

first time 2nd time
g--/-----------------------------------------------------------------------|
d--|-.-----------------------------------------------|----------------------|
a--|-.----------------------------------------------|--------2---3--4-------|
e-------5-5----5---5----5--3----5---5-5---5--5-3--/-----5------------------|

4x
g--|-------------------------------------------------------------------|
d--|----------------------------------2--2-----------------------------|
a--|-5--5------------5--5---------------------4--4----2--2-------------|
e-----------2--2-----------2-2----------------------------------------|

g-----------------------------------------------------------------|
d---2-2-----------------------------------------------------------|
a---------4--4---2--2---------------------------------------------|
e-----------------------4--4--------------------------------------|

2 x 2x
g-------------------------------------------/---------------------------------|
d------------------------------------0---2-/-0------------------------0--2----|
a------------------------------------------/----------------------------------|
e-----5----5--3--3-----3--4--5------------/----5---5--3-3---3--4--5-----------|

3x
g--------------------------------------/----------------------------|
d--------------------------------------/----2--2--------------------|
s--5---5--------------5---5-----------/-----------4-4--2--2---4--4--|
e------------2----2-----------2---2---/-----------------------------|


Текст, аккорды и табулатура для песни "Razamanaz", исполняет "Nazareth".
Используемые в песне аккорды можно найти в разделе Как брать аккорды. Аккорды для шестиструнной гитары. Другие песни можно найти на нашем сайте, воспользовавшись алфавитным указателем вверху страницы.


Слушать онлайн Razamanaz


NazarethRazamanaz на Яндекс.Музыке


 
Ошибка в тексте? Выделите ошибку и нажмите Ctrl+Enter