куплет

e 0-1-0-8--8-8-8--8-8-8-7-5-0--10-10-10--8-7-8--1--
h -------------------------------------------------


e 8-8-1-1-0-7-7-7-4-5
h -------------------

припев

e 0-1-0-8--8-8-8--8-8-8-7-7-1-0--10-10--8-7-8--1--
h ------------------------


e 8-8-1-1-0-7-7-7-4-5
h -------------------

проигрыш

e 5-4-5-4-5-4-5-1--5--5-4-5-4-5-4-1-----5-4-5-4-5-4-5-1--5--
h -----------------------------------3--

e 8-8-1-1-0-7-7-7-4-5--
h ---------------------



Когда умолкнут все песни,
Которых я не знаю,
В терпком воздухе крикнет
Последний мой бумажный пароход.


Good-bye Америка, о,
Где я не был никогда.
Прощай навсегда.
Возьми банджо,
Сыграй мне на прощанье.

Мне стали слишком малы
Твои тертые джинсы.
Нас так долго учили
Любить твои запретные плоды.

Good-bye Америка, о,
Где я не буду никогда.
Услышу ли песню,
Которую запомню навсегда.


Текст, аккорды и табулатура для песни "Прощальное письмо", исполняет "Наутилус Помпилиус".
Используемые в песне аккорды можно найти в разделе Как брать аккорды. Аккорды для шестиструнной гитары. Другие песни можно найти на нашем сайте, воспользовавшись алфавитным указателем вверху страницы.


Слушать онлайн Последнее письмо


Nautilus PompiliusПоследнее письмо на Яндекс.Музыке


 
Ошибка в тексте? Выделите ошибку и нажмите Ctrl+Enter