Em9, Am7
Em9, D7

   Em9           Am7     Em9           D7
1:---15-10-8---------------10-8-14--------------|
2:|5/7-5--5/7575-------8-5/7-5--5/7575---------2/3-1--------|
3:---12-------------------------------------4/11|
4:-------------------------12-10----------------|

Em9                             Am7
Если ты хочешь любить меня полюби мою тень
    Em9                                 D7
Открой для нее свою дверь, впусти ее в дом
 Em9                             Am7
Тонкая, длиная, черная тварь прилипла к моим ногам
  Em9                             D7
Она ненавидит свет, но без света ее нет

1:|-8--87-5-------|---------8--87-5-|8--87-5---------------8--87-5--7|
2:|---------75-7/8-----7|-------75-7/8----------------7--|
3:-------------------------------|
4:-------------------------------|
5:|----0----------|--9/10-9----0----|---0-----------9/10-9----0------|
6:|78-7-----------|-7------78-7-----|8-7-----------7------78---------|

C  Am       Em  Em9+  C         Am     D
   Если ты хочешь,      сделай белой мою тень
C  Am       Em  Em9+  C         Am     D     H7
   Если ты можешь,      сделай белой мою тень

1:---15-10-8----------------------10-8--14------|
2:|5/7-5--5/7575-------8-7/85--5/7-5--5/7575----------2/3-1|
3:---12-----------------------------------------|
4:--------------------------------12-10---------|

  Em9 Em   Em9            Am7
Кто же, кто еще кроме тебя
  Em9 Em   Em9   Em       D  D7
Кто же, кто еще если не ты

1:--------------------|---------5320--5/75-05/7532|
2:|0-5/7-01-5/7-0-5/75-0/3-1-0/3-1|0-5/75-05----01----1-------|

1:|--5/7--5/7---------5---5----8-----14|
2:|-----57---57-7/8-7-7-8-8-10-10-13-13|
3:--------5---5----9-----14|
4:--------7---7------------|

Если ты хочешь любить меня, приготовь для нее кров
Слова ее - все ложь, но это - мои слова
От долгих ночных бесед под утро болит голова
Слезы падают в чай, но чай нам горек без слез

1:|-8--87-5-------|---------8--87-5-8/10|--02357|
2:|---------75-7/8-----7----|13-----|
3:--------------|-------|
4:--------------|-------|
5:|----0----------|--9/10-9----0--------|-------|
6:|78-7-----------|-7------78-7---------|-------|

1:|8--87-5---------------8--87-5-|
2:|-------75-7/8----------------7|
3:-------------------|
4:-------------------|
5:|---0-----------9/10-9----0----|
6:|8-7-----------7------78-7-----|

C  Am       Em  Em9+  C         Am     D
   Если ты хочешь,      сделай белой мою тень
C  Am       Em  Em9+  C         Am     D     H7
   Если ты можешь,      сделай белой мою тень

1:---15-10-8----------------------10-8--14-----------|
2:|5/7-5--5/7575-------8-7/85--5/7-5--5/7575----------2/3-1--0/7|
3:---12----------------------------------------------|
4:--------------------------------12-10--------------|

 Em9 Em   Em9            Am7
Кто же, кто еще кроме тебя
  Em9 Em   Em9   Em       D  D7
Кто же, кто еще если не ты

Соло:
1:|-2053872-0-20-53-10-8|7532357207-12-75320-----------|
2:|0---------0--0---------------------------32/3~-3/53|

1:|--320-023567-12-14-15-14-12-10-875320-----0-7-14-12-1710-10-12-10-11-12|
2:|10---4-------------------------------3-1-0------------------------------|

1:|8-10-85/7-1511/1412/1912852-0-23578-10-12---14/1714-10/1310----|

1:|98-08-8/108-7-0767---15---058/15-14-1210/11/1512|
2:|--4-----------4----------1-------------------------|

 Em9 Em   Em9            Am7
Кто же, кто еще кроме тебя
  Em9 Em   Em9   Em       D  D7
Кто же, кто еще если не ты

2:|5/7-5--5/7575/85/8--------5/7-5--5/7575---2/3-1-2/3-1--0/7|


Текст, аккорды и табулатура для песни "Кто еще", исполняет "Наутилус Помпилиус".
Используемые в песне аккорды можно найти в разделе Как брать аккорды. Аккорды для шестиструнной гитары. Другие песни можно найти на нашем сайте, воспользовавшись алфавитным указателем вверху страницы.


Слушать онлайн Кто ещё...


Nautilus PompiliusКто ещё... на Яндекс.Музыке


 
Ошибка в тексте? Выделите ошибку и нажмите Ctrl+Enter