Вступление:
 
Em Em   C C
Em Em   D7 D7

                                                                                
    Em       Em         C      C    Em       Em         D7         D7            
Тут 1-я гитара играет
 1-|--------|----------|-----|-----|--------|----------|----------||  
 2-|5^7-5---|5^7-5-7-5-|5^8-->-----|5^7-5---|5^7-5-7-5-|----------||
 3-|--------|----------|-----|-----|--------|----------|5^7-5-----|6^7-5------||       
 4-|--------|----------|-----|-----|--------|----------|----------||       
 5-|--------|----------|-----|-----|--------|----------|----------||       
 6-|--------|----------|-----|-----|--------|----------|----------||       
                                                                                     

Em                               C
Если ты хочешь любить меня - полюби мою тень.
Em                                      D7
Открой для нее свою дверь, впусти ее в дом.
Em                              C
Тонкая длинная черная тварь прилипла к моим ногам.
Em                                   D7
Она ненавидит свет, но без света ее нет.

 1-||8-7--5------------8---------7---5-------     
 2-||--------7-5-----------------------7-5---
 C   C        Em   Em  C        Am     D
     Если ты хочешь,    сделай белой мою тень.

 1-||8-7--5------------8---------7---5-------     
 2-||--------7-5-----------------------7-5---
 C   C        Em   Em  C        Am     D      H7
     Если ты можешь,    сделай белой мою тень.

 1-||----------|-----|-----|    
 2-||5^7-5---|5^7-5-7-5----|5^8-->-----|    
 3-||----------|-----|-----|       
       Em                      C
     Кто же, кто еще, кроме тебя.

 1-|-|----------||    
 2-||5^7-5---|5^7-5-7-5------|----------||    
 3-|-|5^7-5-----|6^7-5------||       
       Em                      D7
     Кто же, кто еще, если не ты.


    Em       Em  C          C   Em        D7         D7               
 1-|--------|---|----------|---|---------|----------|---------||    
 2-|---5^7-5>---|-----5^7-5>---|---5^7-5-|----------|---------||
 3-|5-------|---|4-5-------|---|5--------|5^7-5-----|6^7-5----||       
 4-|--------|---|----------|---|---------|----------|---------||      
 5-|--------|---|----------|---|---------|----------|---------||       
 6-|--------|---|----------|---|---------|----------|---------||      

    Em       Em  C          C   Em        D7         D7               
 1-|--------|---|----------|---|---------|-----5^7-|-----||    
 2-|---5^7-5>---|-----5^7-5>---|---5^7-5-|---------|-----||
 3-|5-------|---|4-5-------|---|5--------|4-5------|-----||       
 4-|--------|---|----------|---|---------|---------|-----||      
 5-|--------|---|----------|---|---------|---------|-----||       
 6-|--------|---|----------|---|---------|---------|-----||      

//  Тут на счет аккордов не уверен... По-моему с припева...
    ....
 1-|0^7-----|7-----|----------|---8--||    
 2-|----5-7-|--5-7-|7^8-7-8---|10----||
 3-|--------|------|----------|------||       
 4-|--------|------|----------|------||      
 5-|--------|------|----------|------||       
 6-|--------|------|----------|------||      


Если ты хочешь любить меня, приготовь для нее кров.
Слова ее все ложь, но это мои слова.
От долгих ночных бесед под утро болит голова.
Слезы падают в чай, но чай нам горек без слез.

     Если ты хочешь, сделай белой мою тень.
     Если ты можешь, сделай белой мою тень.
     Кто же, кто еще, кроме тебя.
     Кто же, кто еще, если не ты.
     Если ты хочешь...                



Текст, аккорды и табулатура для песни "Кто еще", исполняет "Наутилус Помпилиус".
Используемые в песне аккорды можно найти в разделе Как брать аккорды. Аккорды для шестиструнной гитары. Другие песни можно найти на нашем сайте, воспользовавшись алфавитным указателем вверху страницы.


Слушать онлайн Кто ещё...


Nautilus PompiliusКто ещё... на Яндекс.Музыке


 
Ошибка в тексте? Выделите ошибку и нажмите Ctrl+Enter