Вступление:

-----------------------2-5-2--2-2-5-4--
|----------5-----5-----5-----5---------------------
---------------------------------------
|----4-6-7---7-6---6-4---4-2---2-------------------
|--7-----------------------------5-----------------
---------------------------------------

----------------------------------2-5-2--5-4-2-0--|
---------5-----5-----5-----5----------------------|
--------------------------------------------------|
---4-6-7---7-6---6-4---4-2---2--------------------|
-7-----------------------------5------------------|
--------------------------------------------------|

Первый куплет:

   Лето         Я изжарен, как котлета         
   Лето            Я купил себе газету          
-----------------------------------
-----------------------------------
-----------------------------------
|--7-7------4-4-------------------7-7------4-4-                    
|--7-7---7--4-4-------------------7-7---7--4-4-                   
|--5-5--5-5-2-2-------------------5-5--5-5-2-2- 
 
Время есть, а денег нету         Но мне на это наплевать
Газета есть, а пива нету              И я иду его искать 
----------------------------------------------------2-----4--|
----------------------------------------------------3-----5--|
----------------------------------------------------2-----4--|
--------------------7-7------4-4--------------------0-----6--|                    
--------------------7-7---7--4-4-----------------------------|                   
--------------------5-5--5-5-2-2-----------------------------| 

Проигрыш: 
 
-----------------------2-5-2--2-2-5-4--
|----------5-----5-----5-----5---------------------
---------------------------------------
|----4-6-7---7-6---6-4---4-2---2-------------------
|--7-----------------------------5-----------------
---------------------------------------

----------------------------------2-5-2--5-4-2-0--|
---------5-----5-----5-----5----------------------|
--------------------------------------------------|
---4-6-7---7-6---6-4---4-2---2--------------------|
-7-----------------------------5------------------|
--------------------------------------------------|

Второй куплет:

   Лето        Все хулиганы при кастетах         
   Лето        Оно сживет меня со свету         
------------------------------------
------------------------------------
------------------------------------
|--9-9------6-----------------------9-9------6--                    
|--9-9---9--6-----------------------9-9---9--6--                   
|--7-7--7-7-4-----------------------7-7--7-7-4--


 У них, наверное, вендетта           Но впрочем это ерунда...   Да-да-да...
Скорей карету мне, карету        Но впрочем подойдет и квас
--------------------------------------------------------------4-------------6-|
------------------------------------------------------------5---5---------7---|
----------------------------------------------------------4-------4-----6-----|
----------------------9-9------6------------------------6-------------8-------| 
----------------------9-9---9--6----------------------------------------------| 
----------------------7-7--7-7-4----------------------------------------------|

Проигрыш: 

-----------------------4---4--4-4-7-6--
|----------7-----7-----7-----7---------------------
---------------------------------------
|----6-8-9---9-8---8-6---6-4---4-------------------
|--9-----------------------------7-----------------
---------------------------------------

---------------------------------4---7--7-6-4-2--|
---------7-----7-----7-----7---------------------|
-------------------------------------------------|
---6-8-9---9-8---8-6---6-4---4-------------------|
-9-----------------------------7-----------------|
-------------------------------------------------|

Третьий куплет:

   Лето           Штаны истерты, как 
-------------------------
-------------------------
-------------------------
|--11-11-------8-12-10---------------                    
|--11-11---11--8-12-10---------------              
|---9--9--9--9-6-10--8---------------  

монета             Во рту дымится 
----------------------------------
----------------------------------
----------------------------------
--11-11-------8-12-10-------------                    
--11-11---11--8-12-10-------------             
---9--9--9--9-6-10--8-------------

сигарета              Иду купаться в водоем
--------------------------------------------------13----------15-|
-----------------------------------------------12----------16----|
--------------------------------------------13----------15-------|
----11-11-------8-12-10------------------11----------13----------|                    
----11-11---11--8-12-10------------------------------------------|              
-----9--9--9--9-6-10--8------------------------------------------|  
 
   Лето             Недавно я услышал   
--------------------------
--------------------------
--------------------------
|--11-11-------8-(8-8-8-8)------------                    
|--11-11---11--8-(8-8-8-8)------------             
|---9--9--9--9-6-(6-6-6-6)------------

где-то          Что скоро прилетит 
-----------------------------------
-----------------------------------
-----------------------------------
-11-11-------8-(8-8-8-8)-----------                    
-11-11---11--8-(8-8-8-8)-----------              
--9--9--9--9-6-(6-6-6-6)-----------
                 
комета           И что тогда мы все умрем  
------------------------------------------------13----------15-|
---------------------------------------------12----------16----|
------------------------------------------13----------15-------|
--11-11-------8-(8-8-8-8)--------------11----------13----------|                    
--11-11---11--8-(8-8-8-8)--------------------------------------|              
---9--9--9--9-6-(6-6-6-6)--------------------------------------|
(То что в скобках играть,не зажимая струны до конца)   

Проигрыш:

------------------------5-8-5--5-5-8-3--
-8------8-----8----8--------------------
----------------------------------------
|-----7-9-10---10-9---9-7--7-5--5-------------------
|--10-----------------------------8-----------------
----------------------------------------

------------------------------------5-8-5--8-7-5-3--|
-----------8------8-----8-----8---------------------|
----------------------------------------------------|
----7-9-10---10-9---9-7---7-5---5-------------------|
-10-------------------------------8-----------------|
----------------------------------------------------|

--------------------------5-8-5-5-5-5-5-8-7--
-8------8-----8-----8------------------------
---------------------------------------------
|-----7-9-10---10-9---9-7---7-5---5----------------------
|--10-------------------------------8--------------------
---------------------------------------------

----------------------------------1-1--5-5--3-3--7-7--0--|
-----------8------8-----8-----8---1-1--6-6--3-3--8-8--1--|
----------------------------------2-2--5-5--4-4--7-7--0--|
----7-9-10---10-9---9-7---7-5---5-3-3--7-7--5-5--9-9--2--|
-10-------------------------------3-3-------5-5-------3--|
----------------------------------1-1-------3-3-------0--|


Текст, аккорды и табулатура для песни "Лето", исполняет "Наив".
Используемые в песне аккорды можно найти в разделе Как брать аккорды. Аккорды для шестиструнной гитары. Другие песни можно найти на нашем сайте, воспользовавшись алфавитным указателем вверху страницы.


Слушать онлайн Лето


НаивЛето на Яндекс.Музыке


 
Ошибка в тексте? Выделите ошибку и нажмите Ctrl+Enter