Вступление:
 {Играется несколько  раз}
    F#5  H5    F#5  H5    F#5  H5    C5   C5  H5 C5 H5
G|-------4-4--------4-4--------4-4---5--X-5-5--4-5-4-|
D|--4-4--4-4---4-4--4-4---4-4--4-4---5--X-5-5--4-5-4-|
A|--4-4--2-2---4-4--2-2---4-4--2-2---3--X-3-3--2-3-2-|
E|--2-2--------2-2--------2-2------------------------|

      F#5                G5    A#5
"The Declaration of the Human Rights!" -
F#5             G5    A#5
I am sure that never die.
F#5        G5  A#5
"C-N-N and U-N-O" -
F#5              G5   A#5
I feel that I´m not alone.

C5                                 C#5
But what can I do about being frustrated,
C5                                 C#5
Being depersonalized and predeterminated,
D5                          D#5
When alienation is common place,
D5                                             D#5
And I stare at the mirror and I can´t see the face!

    F#5  H5    F#5  H5    F#5  H5    C5     C5   C5   H5 C5 H5
G|-------4-4--------4-4--------4-4---5--X---5----5----4--5--4-|
D|--4-4--4-4---4-4--4-4---4-4--4-4---5--X---5----5----4--5--4-|
A|--4-4--2-2---4-4--2-2---4-4--2-2---3--X---3----3----2--3--2-|
E|--2-2--------2-2--------2-2---------------------------------|
                                     I feel that I´m dehumanized!
                                     Welcome aboard! - Dehumanized!

Проигрыш  F#5  G5 A#5 (4 раза).

{Дальше аналогично}

Illusion that I´ve got ideas of my own,
The right of the majority and LSD control,
Market system and good wages,
Scare me we´re living in the Dark Ages!

I tried, tried not be dehumanized.
I tried, tried not be dehumanized.
Should I admit or should I try?!
Try not to be dehumanized!

I feel that I´m dehumanized!
Welcome aboard! - Dehumanized!


Текст, аккорды и табулатура для песни "Dehumanized", исполняет "Наив".
Используемые в песне аккорды можно найти в разделе Как брать аккорды. Аккорды для шестиструнной гитары. Другие песни можно найти на нашем сайте, воспользовавшись алфавитным указателем вверху страницы.


Слушать онлайн Dehumanized


НаивDehumanized на Яндекс.Музыке


 
Ошибка в тексте? Выделите ошибку и нажмите Ctrl+Enter