Song Title: Popular
Artist: Nada Surf
----------------------------------------------


standard tuning 

G------------------------------------------------------12-----
D-----9/10--------------9/10-9--------------------9/10--------
A-----------------------------10-7----------------------------
E-------------------------------------------------------------

G-------------------------------------------------------------
D--9/10-9-----------------------------------------------------
A--------10-7-------------------------------------------------
E--------------------7/8--------------2------------------7----


verse:  play these two little things over and over
G-------------------------------------------------------------
D-------------------------------------------------------------
A-------------------------------------------------------------
E--7/88888888----7-8-7/00000000-------------------------------

but then you get to a different riff
G-------------------------------------------------------------
D-------------------------------------------------------------
A-------------------------------------------------------------
E--2222222/7-77777777-----------------------------------------

chorus
G-------------------------------------------------------------
D-------------------------------------------------------------
A-0-0-0--00-0-0-0---------------------------------------------
E-----------------3-3-3--3/3-3-3-3--------------------------
play this over and over til you reach the next thing

G-------------------------------------------------------------
D-------------------------------------------------------------
A-------------------------------------------------------------
E--31111111--1/888888888-------------------------------------

and this is the order
intro
verse
chorus
verse
intro
verse
chorus ending   |
                |
                |
                /

G----------------------------------------------------------------------
D----------------------------------------------------------------------
A----------------------------------------------------------------------
E----31111111--1/888888888-0-5 (let ring)-----------------------------



thats it
im only 14 and this is my first submitting to this or whatever
email me, ive tabbed some stuff
nirvana, beastie boys, and a bunch of other stuff
ive only been playing for about 7 months, email me
LATER!!!!!!!!!!!!!!!!1

Submitted by:  Jon Beber ([email protected])


Текст, аккорды и табулатура для песни "Popular", исполняет "Nada Surf".
Используемые в песне аккорды можно найти в разделе Как брать аккорды. Аккорды для шестиструнной гитары. Другие песни можно найти на нашем сайте, воспользовавшись алфавитным указателем вверху страницы.


 
Ошибка в тексте? Выделите ошибку и нажмите Ctrl+Enter