standard tuning:EADGBE
capo 2nd fret

E-0---2---0-2-|-------------|
B---3---3-----|--2-3--2-3---|
G-------------|---0-0--0----|
D-0-----------|----------2--|
A---------0---|-------------|
E-------------|--3----3-----|

1st Verse:

E-2-2---2-|---0---0-|-----2------------|---------0-|
B---------|---------|-3------32/3---3-|---3-------|
G--2---2--|--2---2--|---2----------0---|-----------|
D-0---0---|---------|------------------|-------2---|
A---------|-4---4---|-2------2/------|--2---0----|
E---------|---------|------------3-----|-0---------|
(repeat 2x)

Chorus:

E-2--2-----0-|--2--2-----0---|-2-------------|
B-3--2--3--2-|--3--2--3--2---|-3--3-3--------|
G-2--2--0--2-|--2--2--0--2---|-2--3-2----4---|
D-4--2--0--2-|--4--2--0--2---|-4-------------|
A-2--4--2--0-|--2--4--2--0-1-|-2--1-0--7-----|
E----2--3----|-----2--3------|--------4------|

E---------------------|
B-0--2--3--2----------|
G-0--2--0--2----------|
D-2--2--0--2----------|
A-2--4--2--0----------|
E-0--2--3-------------|

2nd Verse:

E-2-2---2-|---0---0-|-----2------------|---------0-|
B---------|---------|-3------32/3---3-|---3-------|
G--2---2--|--2---2--|---2----------0---|-----------|
D-0---0---|---------|------------------|-------2---|
A---------|-4---4---|-2------2/------|--2---0----|
E---------|---------|------------3-----|-0---------|
(repeat 2x)
 repeat chorus then solo
solo:

E----5-6-5-6-5-6-8--8-13-12-10-8-----------------------------------|
B---------------------------------8-7-8-7-8-7-8-10-10-12s14-16-15b-|
G------------------------------------------------------------------|
D------------------------------------------------------------------|
A------------------------------------------------------------------|
E------------------------------------------------------------------|

repeat chorus 1 note higher


Текст, аккорды и табулатура для песни "Tibok Ng Puso", исполняет "Mymp".
Используемые в песне аккорды можно найти в разделе Как брать аккорды. Аккорды для шестиструнной гитары. Другие песни можно найти на нашем сайте, воспользовавшись алфавитным указателем вверху страницы.


 
Ошибка в тексте? Выделите ошибку и нажмите Ctrl+Enter