EVERY LITTLE THING HE DOES IS MAGIC
MYMP

[email protected]

Standard Tuning: (EADGBE)

Intro:

E------------------------------|
B----5------5-------5----------|
G---4-4----4-4-----4-4-----4---|play 3x
D------------------------------|
A-0-------2------0-------2-----|
E----------------------------4-|

Verse:

E------------------------------|
B----5------5-------5----------|
G---4-4----4-4-----4-4-----4---|
D------------------------------|
A-0-------2------0-------2-----|
E----------------------------4-|

E-------------|------------------------|
B--0--2--4--5-|-2--4-------------------|
G--1--2--4--4-|-2--4-------------------|
D-----------2-|------------------------|
A-----0--2----|-0--2-------------------|
E--0----------|------------------------|

E-------------|
B--0--2--4--5-|
G--1--2--4--4-|
D-----------2-|hold
A-----0--2----|
E--0----------|

Chorus:

E--------------|
B----------5-5-|
G--4-4-4---4-4-|play 4x
D--4-4-4---2-2-|
A--2-2-2-------|
E----------0-0-|

E---------3-------0-----------|
B----------3-------3----------|
G-4-----0-------2-------------|
D-4-----------0---------------|
A-2---3-----------------------|
E-----------------------------|

E-------------|------------------------|
B--0--2--4--5-|-2--4-------------------|
G--1--2--4--4-|-2--4-------------------|
D-----------2-|------------------------|
A-----0--2----|-0--2-------------------|
E--0----------|------------------------|

E-------------|
B--0--2--4--5-|
G--1--2--4--4-|
D-----------2-|hold
A-----0--2----|
E--0----------|

Bridge:

E------3---------0--------------|
B-------3----------3------------|
G----0---------2----------------|
D------------0------------play--| 4x
A--3----------------------------|
E-------------------------------|

E--3-3---0-0--|
B--3-3---3-3--|
G--0-0---2-2--|
D--2-2---0-0--|play 3x
A--3-3--------|
E-------------|

E-------------|------------------------|
B--0--2--4--5-|-2--4-------------------|
G--1--2--4--4-|-2--4-------------------|
D-----------2-|------------------------|
A-----0--2----|-0--2-------------------|
E--0----------|------------------------|

E-------------|
B--0--2--4--5-|
G--1--2--4--4-|
D-----------2-|hold
A-----0--2----|
E--0----------|

=====¤w&_17=====


Текст, аккорды и табулатура для песни "Every Little Thing He Does Is Magic", исполняет "Mymp".
Используемые в песне аккорды можно найти в разделе Как брать аккорды. Аккорды для шестиструнной гитары. Другие песни можно найти на нашем сайте, воспользовавшись алфавитным указателем вверху страницы.


 
Ошибка в тексте? Выделите ошибку и нажмите Ctrl+Enter