Dream Without You
M.Y.M.P.

Tab by: wOwiE

Intro:
Play together w/ the chords. Listen to the cd to get the timing.

   D - A - C - G -- D hold
e|-------------------------------------------------|
B|-------------------------------------------------|
G|-------------------------------------------------|
D|-----------7---5--5h7-3~--3h5-3-2-0--------------|
A|--5~--5-8---------------------------3~-----5~----|
E|-------------------------------------------------|

Intro Adlib:

e|------------------------|
B|--7h8-7b----------------|
G|----------7-5-4---------|
D|----------------5-------|
A|------------------5~----|
E|------------------------|

Verse Adlibs:

(va1)                (va2)              (va3)
e|----------------   e|--------------   e|----------------|
B|----------------   B|--5h6--5------   B|--5h6--5--------|
G|----------------   G|---------5----   G|---------5-5/7--|
D|--4h5--4--------   D|-----------4--   D|----------------|
A|---------5-5/7--   A|--------------   A|----------------|
E|----------------   E|--------------   E|----------------|

Chorus Adlibs:

(ca1)                   (ca2)
e|--------------------  e|--------------------|
B|--5h6--5------------  B|--5h6--5------------|
G|---------5-4-5-4----  G|---------5-4-5-4/7--|
D|-----------------4--  D|--------------------|
A|--------------------  A|--------------------|
E|--------------------  E|--------------------|


Verse 1:

D                       A       (va1)
Last night you said you love me
C                       G         (va2)
Last night you said you needed me
D                      A             (va1)
When I woke up I never saw your face
C                        G            (va3)
When I woke up You never left a trace
Bm                       G
And if there's nothing I can say or do
Bm                          G
I'll sing this song I wanna sing to you

Chorus:

D       A                 C                G   (ca1)
I don't wanna dream if my dream is without you
D       A                 C                  G    (ca2)
I don't wanna sleep if my dream will only be blue
Bm
I don't wanna hear the words
G
I don't wanna feel your touch
Bm                     G                 D hold (Intro Adlib)
All I know is that you hurt me so much

Verse 2:

D                           A        (va1)
You said that we would stay together
C                          G       (va2)
I thought that we would be forever
D                         A    (va1)
I never thought we'd ever part
C                       G     (va3)
But now I have a broken heart
Bm                   G
I wonder why I never understand
Bm                      G
But I understood when I saw you then

Chorus w/ Intro adlib in the last part

Verse 3:

D                                   (va1)
Boy, it's been three years since we part
A                                           (va2)
And all those years I never had a change of heart
C                                       (va1)
I'm not asking you back, I just need a friend
G                                     (va3)
All I'm asking is, let me dream again

Chorus 2x

6/6/04
4:15 P.M.
wOwiE
o(o_O)o


Текст, аккорды и табулатура для песни "Dream Without You", исполняет "Mymp".
Используемые в песне аккорды можно найти в разделе Как брать аккорды. Аккорды для шестиструнной гитары. Другие песни можно найти на нашем сайте, воспользовавшись алфавитным указателем вверху страницы.


 
Ошибка в тексте? Выделите ошибку и нажмите Ctrl+Enter