Вся песня, вроде, играется в 3 аккорда. Поправьте, если не прав.
       |----------|
       |-F--C--Dm-|
       |----------|

intro: Riff1

Что ж если уж и твой муж
Прячется в душ,
Когда ты балуешь.
На виду не у тех а с кем ты дружишь...

Да вот и я и не друг - 
Почти знакомый,
Но еще не такой до боли.
И никак не завернуть уже до дома.

Так
одинок
уголек
Тепл но юрок,
Не хотел, да обижу

Сегодня ближе до Парижа  x2
Сегодня виды на Мадрид 

Сегодня ближе до Парижа
А мы в Москву гонять тоску

Сегодня ближе
А мы в Москву прогнать тоску

Сегодня ближе...
-----------------------------------------------------------------------------------------

riff1:
e------------------------------------------------13-10-|
B|---6--8--10----13--10/8-8------------|--6--8--10----13--10/8-8---13-10-------|
G|-5---------------------------10-9-7------------------------------|

riff1(continue):

e---------------------------------------------------------------|
B|--10-8-6------8--5---------6--|---6--8--10--13-10--13-10--8---6-5-----3---------------|
G|---------7-----------5--------|-5---------------------------------5/2--------2--0-----|
D-------------7-----------------------------------------------3-|

VIVA EL ROCKAPOPS!!!


Текст, аккорды и табулатура для песни "Знакомым Столичным", исполняет "Мумий Тролль".
Используемые в песне аккорды можно найти в разделе Как брать аккорды. Аккорды для шестиструнной гитары. Другие песни можно найти на нашем сайте, воспользовавшись алфавитным указателем вверху страницы.


Слушать онлайн Знакомым столичным


Мумий ТролльЗнакомым столичным на Яндекс.Музыке


 
Ошибка в тексте? Выделите ошибку и нажмите Ctrl+Enter