Am E               F
Здравствуй еще раз здравствуй
    Fm                  C   
Привет красавцы здравствуй
              E              E
Забрызгали все красной лаской

Давлю воспоминания пастой
Боли ужасной помочь не сможет гель
Даже фастум.

Проигрыш: Am | Dm | E | E 

Так классно не как тогда всене опасно
Вот только как-то мимо кассы
И я и ты совсем другие очень касты

           Am                E7
Ни тебе здравствуй ни до свидания
           E7               Am
Только заплаты на шрамопоминание
Ни тебе здравствуй и ни до свидания
Только заплаты на шрамопоминание

До свидания теперь уж точно до свидания
Драгоценное мое созданье до свидания
Эти шрамы нам как напоминание
О рискованных свиданиях 
Леской горло перетягивая

Припев

e|-------------------------------------------------------------------------------------------8--|
H|-----------------------------8---------------------------------------------------------5/8----|
G|---9---9-7-5-9---------9---9---9-7----------7---7-5-4-7-----5-h7---9-7-5-4---7---9------------|
D|----------------------------------------------------------------------------------------------|
A|----------------------------------------------------------------------------------------------|
E|----------------------------------------------------------------------------------------------|

e|----------------------------------------------------------------------------------|
H|-----------------------------8----------------------------------------------------|
G|---9---9-7-5-9-------------9---9-7----------7---7-5-4-7-----5---7-5-7-7-5---------|
D|--------------------------------------------------------------------------7-------|
A|----------------------------------------------------------------------------------|
E|----------------------------------------------------------------------------------|


Текст, аккорды и табулатура для песни "Здравствуйдосвидания", исполняет "Мумий Тролль".
Используемые в песне аккорды можно найти в разделе Как брать аккорды. Аккорды для шестиструнной гитары. Другие песни можно найти на нашем сайте, воспользовавшись алфавитным указателем вверху страницы.


Слушать онлайн Здравствуйдосвидания


Мумий ТролльЗдравствуйдосвидания на Яндекс.Музыке


 
Ошибка в тексте? Выделите ошибку и нажмите Ctrl+Enter