Am             H
  На северном полюсе
Dm
  Разлиты до соболей,
Am           Em
  Раздеты до пояса,
Dm            Em
  Затаились отважные. 
 F                     Am
  Раза раза три готов,
 E             F
  Разорвать твою любовь!

Solo:

3)-------------0----------|
4)----------2-----3-2--2--|
5)-3--2--0----------------|

Немножко не выжили,
Затянулись сигарами,
Я пары усталости
Меняю в стаю желания.

Круги нарезав полярные,
Одиночки - герои - мы,
Взаимно влюбленные
Подводные лодочки.

Solo 2:

2)--------------------------------------3-----------|
3)-------------0-----------/5--4--2--5----5--4-4----|
4)----------2-----3--2-2----------------------------|
5)-3--2--0------------------------------------------|

1)------------------------------------------8-10-8-12-10-8-10-|
2)------------------------------5--8-10-10--------------------|
3)----5---5--7-5-/9-7-5-7--5-7--------------------------------|
4)-/7--7------------------------------------------------------|
5)------------------------------------------------------------|


Текст, аккорды и табулатура для песни "Северный полюс", исполняет "Мумий Тролль".
Используемые в песне аккорды можно найти в разделе Как брать аккорды. Аккорды для шестиструнной гитары. Другие песни можно найти на нашем сайте, воспользовавшись алфавитным указателем вверху страницы.


Слушать онлайн Северный полюс


Мумий ТролльСеверный полюс на Яндекс.Музыке


 
Ошибка в тексте? Выделите ошибку и нажмите Ctrl+Enter