Intro:
   Em
E------------------------| GU
B|-5---------------------|-5---------------------| IT
G--4-5---------4-5-------| AR
   | | | | | | | |   | | | | | | | |   | | | | | | | |   | | | | | | | |
D------------------------| GU
A------------------------| IT
E|-0-----0-0-------|-0-----0-0-------|-0-----0-0-------|-0-----0-0-------| AR
   | | | | | | | |   | | | | | | | |   | | | | | | | |   | | | | | | | |
A------------------------| BA
E|-0-----0-0-------|-0-----0-0-------|-0-----0-0-------|-0-----0-0-------| SS

Bridge:
   Em               Am                 Em                Am
E3---5-|-----3---2-3-2---3---5-|-----3---2-3-2---| GU
B|-5-------5-------------|-5-------5-------------| IT
G|-------4---------------|-------4---------------| AR
   | | | | | | | |   | | | | | | | |   | | | | | | | |   | | | | | | | |
D------------------------| GU
A------|-0-----0-0-------------|-0-----0-0-------| IT
E|-0-----0-0-------------|-0-----0-0-------------| AR
   | | | | | | | |   | | | | | | | |   | | | | | | | |   | | | | | | | |
A------|-0-----0-0-------------|-0-----0-0-------| BA
E|-0-----0-0-----3-----3-|-0-----0-0-----3-----3-| SS

   Em                Am                B                 B
E3---5-|-----3---2-3-2---------|-2---------------| GU
B|-5-------5-------------|-5-------4-------------| IT
G|-------4---------------------------| AR
   | | | | | | | |   | | | | | | | |   | | | | | | | |   | | | | | | | |
D------------------------| GU
A------|-0-----0-0-------|-2-----2-2-----2-|-2-----2-2-------| IT
E|-0-----0-0-------------------------| AR
   | | | | | | | |   | | | | | | | |   | | | | | | | |   | | | | | | | |
A------|-0-----0-0-------|-2-----2-2-----2-|-2-----2-2-0-----| BA
E|-0-----0-0-----3-----3---------3-0-| SS

Bridge

Verse:
      Em              Am
  Вдыхали цветы и на завтра прокиснем
     B7                    B7
  И рядом друг с другом наверно повиснем
     Em                Am
  Отсохнет убъется сломается ветка
      B7                B7
  На карте проверишь рыдает ранетка

Pre-Chorus:
     Em                 Am
  А мне бы той ночью оставили денег
    Em                Am
  Увез бы тебя на такси
       Em              Am
  Прости не увидел пропали билеты
B7             B7
  Простыли цветы

Chorus:
     Am             G
  Засохли чаинки на алые губы
C             C
  Как листья легли
      Em                 Am                 B7   B7
  Ты ды-ды-ды ты-ды, ты ды-ды-ды ты-ды, ты-ды

Bridge

Verse:
      Em             Am
  До моря дошли прокололи покрышки
     B7                B7
  Заманит обманет и кинется с вышки
       Em                Am
  Ты знаешь как тянет уснуть но едва ли
     B7           B7
  Усталую скорую не понимали

Pre-Chorus
Chorus
Bridge   X2


Текст, аккорды и табулатура для песни "Ранетка", исполняет "Мумий Тролль".
Используемые в песне аккорды можно найти в разделе Как брать аккорды. Аккорды для шестиструнной гитары. Другие песни можно найти на нашем сайте, воспользовавшись алфавитным указателем вверху страницы.


Слушать онлайн Ранетка


Мумий ТролльРанетка на Яндекс.Музыке


 
Ошибка в тексте? Выделите ошибку и нажмите Ctrl+Enter