Gm          Gm
Main  riff   --6-5-6-5-----6-6-5-6-5--------- 
             --8-7-8-7-----8-8-7-8-7---------   
             --7-6-7-6-----7-7-6-7-6--------- 
             --5-4-5-4-----5-5-4-5-4---------     
             --------------------------------             
             --------------------------------


Bass         --------------------------------             
             -------------------------------- 
             --------------------------------             
             --5-4^5-------5-5-4^5----------- 
             --------5-------------5---------              
             --------------------------------



Solo         ----------------------------------
             ----------------------------------
             --7-6-7-9-6-7--------------------- 
             -----------------7^8-7------------
             --------------------------8^9-8---
             ---------------------------------- 


----------------------------------
----------------------------------
----------------------------------
-------------------7^8-7--7^8-7---
---5-4-5-7-4-5--------------------
----------------------------------



------------------------------------------------- 
-------------------------------------------------
-------------------------------------------------
7^8--10--8-7--------------7^8-10-8-7------------- 
--------------7^8-7-------------------7^8-7----
-------------------------------------------------  


--------------------------------------------
--------------------------------------------
------------8-7-6-7--10--8-7-8--7^8-7^8-7^8-
----7^8-10----------------------------------
--------------------------------------------
--------------------------------------------


Gm

Помельче порежу морскую капусту
      F                  Gm
Не знаю ты любишь ли? но будет вкусно

Никогда ведь не скажешь придешь ли на вечер
       F           E           A(V)
Так адрес узнаешь а отметить и нечем



Еще я готов развлекать тебя песней
Но только в других гостях всегда интересней
Там смотрят кино и целуются в уста
А я режу режу режу режу морскую капусту


Текст, аккорды и табулатура для песни "Морская капуста", исполняет "Мумий Тролль".
Используемые в песне аккорды можно найти в разделе Как брать аккорды. Аккорды для шестиструнной гитары. Другие песни можно найти на нашем сайте, воспользовавшись алфавитным указателем вверху страницы.


Слушать онлайн Морская капуста


Мумий ТролльМорская капуста на Яндекс.Музыке


 
Ошибка в тексте? Выделите ошибку и нажмите Ctrl+Enter