Intro: Gm F#m variations x4

Verse 1:
Gm                  Dm
Помельче порежу морскую капусту
   A                     Dm
Не знаю ты любишь ли, но будет вкусно.
Gm                         Dm
Никогда ведь не скажешь, придешь ли на вечер.
    A             Gm             A(V)
Так адрес узнаешь, а отметить и нечем.


Solo1: (в аккордах над риффом не уверен, кроме 2-х последних)
                    Dm                         A      Dm
e|---10---9h10-12-9h10-|----------------------------------|
B|---------------------|--10h11p10------------------------|
G|---------------------|------------9h10p9--7--6h7-9-6/7--|
 |        |x2|         |
                                  A             Dm
e|-----------------------|------------------------------------|
B|--10-11-10---10-11-10--|--10-11-13-11-----------------------|
G|-----------------------|----------------10-12-14---12p109--|
    A           Dm                            Gm                  A(V)
e|-----------------------------|-----------15-17--------20---18---17---20/21-22-24~~~-|
B|--10-11-13-11-10-------------|--15-17-18---------15---------------------------------|
G|--------------------12p109--|------------------------------------------------------|

Gm F#m variations x4

Verse2:
Еще я готов развлекать тебя песней,
Но только в других гостях всегда интересней.
Там смотрят кино и целуются в уста,
А я режу, режу, режу, режу морскую капусту...

Solo2:

e|---10---9h10-12-9h10-|----------------------------------|
B|---------------------|--10h11p10------------------------|
G|---------------------|------------9h10p9--7--6h7-9-6/7--|
           
e|-----------------------|------------------------------------|
B|--10-11-10---10-11-10--|--10-11-13-11-----------------------|
G|-----------------------|----------------10-12-14---12p109--|

e|-----------------------------|-------------------|
B|--10-11-13-11-10-------------|--10-11-10---------|
G|--------------------12p109--|-----------11-12---|

e|--------------------------15-14h15-18-17h18-21--22----21-22-24~~~|
B|--------11-10h11-15-14h15----------------------------------------|
G|--11h12----------------------------------------------------------|

Gm F#m variations x4



Текст, аккорды и табулатура для песни "Морская капуста", исполняет "Мумий Тролль".
Используемые в песне аккорды можно найти в разделе Как брать аккорды. Аккорды для шестиструнной гитары. Другие песни можно найти на нашем сайте, воспользовавшись алфавитным указателем вверху страницы.


Слушать онлайн Морская капуста


Мумий ТролльМорская капуста на Яндекс.Музыке


 
Ошибка в тексте? Выделите ошибку и нажмите Ctrl+Enter