Intro:     1:--17---------17--15--------------------------------        
           2:---------------------15--17--15--17--15--17-18-15         
           3:------14--15---------------------------------------


B          A            Dm
 И всыпал снег не случайно,
     B            A
 Это я заметал следы.
B      A              Dm
 Он такой не сладкий,

 И совсем не красный,
B              A
 Наверное как ты...
                               
B                Dm                              
 Иней стал на ресницы,                   
B	 A                                   
 Замерзали духи...

(Bridge)           B            Dm             B               A
             1:-------17--15--------------------------17--15----------
             2:---------------17--18--17--15------------------18--17
             3:-14--15--------------------------14--15----------------


|: Hm  G  Em  Em  Hm  G  F# :|

Проигрыш:       Hm     G      Em(Em) Hm     G      F#                                          
             2:-7---7--8---7---------7---7--8------7--
             3:----9------9----9--------9-----9--7----
             4:------9-------9------------9-------9---


       G              Em
 Моя певица умирает назавтра,
         Hm         A        Em
 Ей бы понюхать последних секунд,
       G              Em
 Моя певица умирает назавтра,
 Hm     A       Em
    Но ее не вернуть...


Заманили в афиши,
Пристрелялись и к темноте,
Мы поедем в город,
Будет все серьезно,
Ты если сдашься, то мне.

Расплатились венками -
Заплели на букет.

Моя певица умирает назавтра,
Ей бы понюхать последних секунд,
Моя певица умирает назавтра,
Но ее не вернуть.


Текст, аккорды и табулатура для песни "Моя певица", исполняет "Мумий Тролль".
Используемые в песне аккорды можно найти в разделе Как брать аккорды. Аккорды для шестиструнной гитары. Другие песни можно найти на нашем сайте, воспользовавшись алфавитным указателем вверху страницы.


Слушать онлайн Моя певица


Мумий ТролльМоя певица на Яндекс.Музыке


 
Ошибка в тексте? Выделите ошибку и нажмите Ctrl+Enter