Intro:
   C                               B
G|-2-----------0-----------------|---------0---------------------| SU
D--------------------|-2---4-------4-----------------| XX
   |   |   |   |   |   |   |   |   |   |   |   |   |   |   |   |
E--8-------x---x-------7-------x---x-----| G
B--8-------x---x-------7-------x---x-----| U
G9-9-------x---x-----8-8-------x---x-----| I
D|---------10----------x---x-----|----------9----------x---x-----| T
A|--------10---------------------|---------9---------------------| A
E|-8------8----------------------|-7------7----------------------| R
   |   |   |   |   |   |   |   |   |   |   |   |   |   |   |   |
A--10------------------9-----------------| BA
E|-8---------------------------8-|-7---------------------------7-| SS
 
   C                               B
G|-2---0-------0-----------0-------------------------| SU
D----------2-------4---------------------| XX
   |   |   |   |   |   |   |   |   |   |   |   |   |   |   |   |
   C                               B
G|-2-----------0-----------------|---------0---------------------| SU
D--------------------|-2---4-------4-----------------| XX
   |   |   |   |   |   |   |   |   |   |   |   |   |   |   |   |
   C                               B
G|-5---4-------2-------------------------------------| SU
D------------------2-|-4-----------------------------| XX
   |   |   |   |   |   |   |   |   |   |   |   |   |   |   |   |
 
Verse:
   C                               B
E--8-------x---x-------7-------x---x-----| G
B--8-------x---x-------7-------x---x-----| U
G9-9-------x---x-----8-8-------x---x-----| I
D|---------10----------x---x-----|----------9----------x---x-----| T
A|--------10---------------------|---------9---------------------| A
E|-8------8----------------------|-7------7----------------------| R
   |   |   |   |   |   |   |   |   |   |   |   |   |   |   |   |
A--10------------------9-----------------| BA
E|-8---------------------------8-|-7---------------------------7-| SS
 
      C      B                     C    B
  Согрейся, твои холоднее стали струны
  С            B           C      B
  Я хочу в горы, я хочу в дюны
   Am         C                 Em    Em
  Но как сообщил сегодня наш дозор
   Am        C                   Em    Em
  На пути осталя вражеский гарнизон
C            B              C    B
  Я горько плачу заведомо зная
     C          B               C    B
  Страшно и лень просто я интендант
  Am      C                 Em    Em
  Из простыней шьют белые флаги
      Am         C             Em    Em
  Давно пришло время их распускать
 
Сноrиs:
      Dm       F         C     Am
  Пурпурно метеоры кровоточат
   Dm         F       C    Am
  На луне заблеяла коза
    Dm       F          C     Am
  Все побудоражил наши души
   Dm         F    G         G      F
  Мальчик-солдат     потерявший глаза
 
Solo:
   F                 G                 Am                Am
B------|-3---------------|--------4h5-4h5-6|-----5---3-------| SU
G|---------2-4---5-------------5-----| XX
   | | | | | | | |   | | | | | | | |   | | | | | | | |   | | | | | | | |
D|-3-----3-3-----5-|-5-----5-5-----7-|-7-----7-7-----7-|-7-----7-7-------| GU
A|-3-----3-3-----5-|-5-----5-5-----7-|-7-----7-7-----7-|-7-----7-7-------| IT
E|-1-----1-1-----3-|-3-----3-3-----5-|-5-----5-5-----5-|-5-----5-5-------| AR
   | | | | | | | |   | | | | | | | |   | | | | | | | |   | | | | | | | |
A----------0-|-0-----0-0-----0-|-0-----0-0-------| BA
E|-1-----1-1-----3-|-3-----3-3-------------------| SS
 
   F                 G                 F                 G
B------|-3---------------------|-3---------------| SU
G|0h2------2-4---5-------|---------2-4---5-------| XX
   | | | | | | | |   | | | | | | | |   | | | | | | | |   | | | | | | | |
D|-3-----3-3-----5-|-5-----5-5-----3-|-3-----3-3-----5-|-5-----5-5-------| GU
A|-3-----3-3-----5-|-5-----5-5-----3-|-3-----3-3-----5-|-5-----5-5-------| IT
E|-1-----1-1-----3-|-3-----3-3-----1-|-1-----1-1-----3-|-3-----3-3-------| AR
   | | | | | | | |   | | | | | | | |   | | | | | | | |   | | | | | | | |
A------------------------| BA
E|-1-----1-1-----3-|-3-----3-3-----1-|-1-----1-1-----3-|-3-----3-3-------| SS
 
Verse:
C           B              C    B
  Положив свое копье под подушку
   C               B             C   B
  Кажется на завтра отменили войну
   Am             C                 Em     Em
  Нам бы с тобой песен напеть на катушку
  Am      Am              Em     Em
  И отплясать во всю ширину
 
Chorus
Solo
Ending


Текст, аккорды и табулатура для песни "Мальчик-солдат", исполняет "Мумий Тролль".
Используемые в песне аккорды можно найти в разделе Как брать аккорды. Аккорды для шестиструнной гитары. Другие песни можно найти на нашем сайте, воспользовавшись алфавитным указателем вверху страницы.


Слушать онлайн Мальчик-солдат


Мумий ТролльМальчик-солдат на Яндекс.Музыке


 
Ошибка в тексте? Выделите ошибку и нажмите Ctrl+Enter