Исполняется на двух гитарах - ритм и соло. Ритм играет все время.

intro rhythm Cm(III)  Dm(V)  Gm(III)  Gm(III) x2

intro solo x2

e-----------------------------------------------------------------------------|
B|--3--5--6-6----5----8--5-----------------6-6--4-----------------------------------------|
G-----------------5----52/5-----------3-5--7---78-7-7---5-5--3---2---3---5--|
D-----------------------------------------------------------------------------|
A-----------------------------------------------------------------------------|
E-----------------------------------------------------------------------------|



Verse1
Bb(VI)                    F
Как ты только мне не улыбаешся
Cm(III)      Dm(V)       Gm(III)      (Riff1)
Светишся так сильно что горишь
Bb(VI)                    F
Мучаться придется не стесняюсь я
                                (Riff2)
Cm(III)             Dm(V)       Gm(III)    F
Сказать о том, что сегодня я оставляю тебе Север -
  F                   F
Джунгли были заняты уже

Chorus:
     Cm(III)         Dm(V)         Gm(III)
Уже не больно, и ты довольна, уже получше
       Cm(III)         Dm(V)           Gm(III)   Cm(III)  Dm(V)
Тебе не больно, и ты довольна, а мне б поглубже
   Gm(III)    F
Не скучно

Verse2
Длинной ночью может фантастичней быть
Ну больше сновидений или грез
Можно полярным ожить сияньем
И прогореть как вышки
Договоримся так успеем
Ждет королевский праздничный пирог

Chorus:
Уже не больно, и ты довольна, уже получше
Тебе не больно, и ты довольна, а мне б поглубже
Не скучно

Solo (same as intro)

Chorus:
Уже не больно, и ты довольна, уже получше
Тебе не больно, и ты довольна, а мне б поглубже
Уже не больно, и ты довольна, тебе получше
             F   Bb
Не скучно


_____________________________________________________________________________________

           Riff1                         Riff2
e--------------------|-------3---------5--|
B|------6---4-----3-----------------------|
G|--5-----------------5-2---3----|--32-------54-----|
D-----------------------------|
A-----------------------------|
E-----------------------------|

Не совсем уверен, что Riff2 правильно написан - на записе очень тяжело услышать,
много посторонних звуков. Там еще есть какие-то риффы, но их так в облом подбирать,
уж простите.
Ах да, если Bb взападло брать аж на седьмом ладу - берите на первом

Chords used:

  Bb(VI)  F  Cm(III) Dm(V)  Gm(III)
e|--6----1----3-------5------3----|
B|--6----1----4-------6------3----|
G|--7----2----5-------7------3----|
D|--8----3----5-------7------5----|
A|--8----3----3-------5------5----|
E|--6----1----3-------5------3----|

VIVA EL ROCKAPOPS!!!


Текст, аккорды и табулатура для песни "Глубже", исполняет "Мумий Тролль".
Используемые в песне аккорды можно найти в разделе Как брать аккорды. Аккорды для шестиструнной гитары. Другие песни можно найти на нашем сайте, воспользовавшись алфавитным указателем вверху страницы.


Слушать онлайн Глубже


Мумий ТролльГлубже на Яндекс.Музыке


 
Ошибка в тексте? Выделите ошибку и нажмите Ctrl+Enter