1)--------------------------------------------------|
2)--5-6-6--5-8-5-------6-6--------------------------|
3)-7------------5---5-5----8-5-7---7-8-7-7-5-5-----5| - 2 раза
4)-------------------7------8-----------------8-7-8-|   
5)--------------------------------------------------|
6)--------------------------------------------------|

 Bb                      F
Как ты только мне не улыбаешься
  Cm           Dm            Gm  F
Светишься так сильно, что горишь
 Bb                         F   
Мучаться придется - не стесняюсь я
    Cm                Dm          Gm       Dm  
Сказать о том, что сегодня я оставляю тебе Север
  F
Джунгли были заняты уже 

Припев:
        Eb(Сm)        F             Gm
Уже не больно и ты довольна, уже получше
         Eb(Cm)        F                  Gm
Тебе не больно и ты довольна, а мне б поглубже
Eb(Cm)  F  Gm
       Не скучно.
 
2)-8-8-8-8-6----|
3)-----------7--| Соло припева
4)------------8-|

Длинной ночью может фантастичней быть
Ну больше сновидений или грез

2)-------6-4-3-1-
3)-0-0-3--------2

Можно полярным ожить сиянием
И прогореть, как вышки 
Договоримся
Так успеем
Ждет королевский праздничный пирог

Уже не больно и ты довольна уже получше
Тебе не больно и ты довольна, а мне б поглубже
Уже не больно и ты довольна тебе получше
Не скучно




Текст, аккорды и табулатура для песни "Глубже", исполняет "Мумий Тролль".
Используемые в песне аккорды можно найти в разделе Как брать аккорды. Аккорды для шестиструнной гитары. Другие песни можно найти на нашем сайте, воспользовавшись алфавитным указателем вверху страницы.


Слушать онлайн Глубже


Мумий ТролльГлубже на Яндекс.Музыке


 
Ошибка в тексте? Выделите ошибку и нажмите Ctrl+Enter