Соло:
 1|-5544---|-5-544---|-5544---|-5-544---|
 2|-----55-|------55-|-----44-|------44-|
 3|-------6|--------6|-------6|--------6|
 4|--------|---------|--------|---------|
 5|--------|---------|--------|---------|
 6|--------|---------|--------|---------| 

 1|--------|---------|--------|---------|
 2|--------|---------|--------|---------|
 3|---55668|--5-5668-|---66889|--6(6889)|
 4|-66-----|66-------|-77-----|77-------|
 5|--------|---------|--------|---------|
 6|--------|---------|--------|---------|

 Соло проиграть 2 раза (То что в скобках 
 в последний раз не играется)

 Куплет 1:
             F#m 
 К трамвайному стеклу 
 Прилеплен нос и щека 
         A#m 
 Консервы из пассажиров 
 Вспышки на проводах 
       C 
 И за спиною в сумке 
 F 
 Опять пять кассет - 
     G# 
 Они всегда там 
 A 
 С пятнадцати лет


 И ты считаешь минуты
 Между поездами
 Никуда не спешишь
 Опять опоздаешь
 Потерялись искала 
 Батарейки для плэйра,
 Интересная книга,
                    C
 Часы не проверила ты

 Припев:
            Hm               F#m
 	В яды мы превращаемся я и ты
                        Em
         Срываемся на часы просто по городу
             D            F#
         Без вести и звонков
         В яды мы превращаемся я и ты
         Улыбаемся от слабости, не хватает сил просто
         Отпустить сказать и потерять ключи
 
 Соло

 Куплет 2:

 И вроде тот же город
 И та же вода
 По две закладки в каждой книге
 Та же, та же еда
 Загазованный воздух 
 Тут не причем
 Надоело, устало
 Иди, мы пойдем
 
 И ты считаешь минуты
 До следующего поезда
 Просто рассказ,
 Просто история
 Даже вместе найдем
 Батарейки для плейера
 Интересных книг нет, 
 Зря не поверила ты

 Припев

 Соло

 Припев


Текст, аккорды и табулатура для песни "Яды", исполняет "Мультфильмы".
Используемые в песне аккорды можно найти в разделе Как брать аккорды. Аккорды для шестиструнной гитары. Другие песни можно найти на нашем сайте, воспользовавшись алфавитным указателем вверху страницы.


 
Ошибка в тексте? Выделите ошибку и нажмите Ctrl+Enter