Интро - Вступление

El---------------------------------------------------------|
Al------3--2----3------------------------------------------|
D|-0/2----------3--3---------------------------------------|
G---2-----2------2------2----------------------|
B-------------1------1-------------------------|
e-----------1------1---------------------------|

El---------------------------------------------------------|
Al------3--2---0-------------------------------------------|
D|-0/2---------2--2----------------------------------------|
G--2----2------2------2------------------------|
B-----------1------1---------------------------|
e---------0------0-----------------------------|

El-------------------------------3----------------------------|
Al------3-2---3------------------2---------0------------------|
D|-0/2--------3--3---------------0---------2------------------|
G-2----2----2-----2---------0--2---2------2----2--|
B--------1-----1---------1-----------1--1----1----|
e------1------1--------1--------------0---0-------|

El-----------3-----------------------------------------------|
Al-----------2---------0-------------------------------------|
D0---------2-------------------------------------|
G------0---2---2-----2---------------------------|
B-----1----------1--1----------------------------|
e---1--------------0---0-------------------------|

Am				G
Жизнь прошла, и не мало было дней 
	     C	     E		Am
Дней когда было грустно
Am				G

Грустно нам, что уходять в даль года
C	 E		Am
На душе вдруг стало  пусто


Жизнь прошла, но остался горький след
В суете дни промчались
Может быть, то последний наш рассвет
Только с чем мы остались
Позади юности лихой задор
Позади радость жизни
И в дали маяком горит огонь
Твой корабль, последняя пристань

Может быть ты смиришься и поймешь
То судьба, не быть иначе
Ты себя вдруг назад перенесешь
Бренный мир, ты был обманчив


Припев:
A				   Dm
Ночь своим сияньем, нас  к себе поманит
G	 C     E		Dm
И своим молчаньем многое расскажет
Dm		G	    C	E
Мы все когда то этот мир покинем
Dm		 E    Dm	 E	Am
К жизни нет возврата, к жизни нет возврата

Унося с собою прошлых дней печаль
К небесам мысли улетают
Что таит за собою ночная даль
Может быть там все прощают


Жизнь прошла, но остался горький след
В суете дни промчались
Может быть, то последний наш рассвет
Только с чем мы остались

Ночь своим сияньем, нас  к себе поманит
И своим молчаньем многое расскажет
И мы все когда то этот мир покинем
К жизни нет возврата, к жизни нет возврата


Текст, аккорды и табулатура для песни "Ночь своим молчаньем", исполняет "Муцураев Тимур".
Используемые в песне аккорды можно найти в разделе Как брать аккорды. Аккорды для шестиструнной гитары. Другие песни можно найти на нашем сайте, воспользовавшись алфавитным указателем вверху страницы.


 
Ошибка в тексте? Выделите ошибку и нажмите Ctrl+Enter