title-after the flesh
artist-my life with the thrill kill kult
album-the crow soundtrack
tabbed by-bobby siegfried
type-bass tablature
send comments, corrections, tabs to: [email protected]

MAIN RIFF
G|-----------------|
D|-----------------|
A|-7---------------|
E|---0-0-5-3-0-3-3-|

VARIATION 1
G|-----------------|
D|-----------------|
A|---7-------------|
E|-0---0-5-3-0-3-3-|

VARIATION 2
G|-------------------|
D|-------------------|
A|---7---------------|
E|-0---0-0-5-6-5-3-0-|

VARIATION 3
G|-------------------|
D|-------------------|
A|---7---------------|
E|-0---0-0-5-3-0-0-3-|

PRECHORUS 1x
G|--------------|
D|--------------|
A|---7------7---|
E|-0---0--0---0-|

VARIATION 1 8x

CHORUS 4x
G|----------------------------------|
D|---3----------------2-------------|
A|---------1-1----------------------|
E|-1---1-1-----1-1--0---0-0-5-5-0-0-|

VARIATION 1


Текст, аккорды и табулатура для песни "After The Flesh", исполняет "My Life With The Thrill Kill Kult".
Используемые в песне аккорды можно найти в разделе Как брать аккорды. Аккорды для шестиструнной гитары. Другие песни можно найти на нашем сайте, воспользовавшись алфавитным указателем вверху страницы.


 
Ошибка в тексте? Выделите ошибку и нажмите Ctrl+Enter