Tabbed by:THE SANDMAN
Email:[email protected]


[email protected]--|
G#|----------------------------------------------------------------|
E |----------------------------------------------------------------|
B |--------2-2-2-------2-2-1-1-0-0---------------------------------|
F#|--------------------------------1-1-1-1-1-1-1-0-2-2-2-0---------|
C#|0-0-0-0-------0-0-0-------------------------------------3-3-2-2-|


C#|-------------------------------------|
G#|12-13-13-12-13-13-12-13--15-13-------|
E |-------------------------------------|
B |-------------------------------------|
F#|-------------------------------------|
C#|-------------------------------------| 

C#|----14--12------14--12------14--12------14--12------14--12------|
G#|12----------12----------12----------12----------12----------12--|
E |----------------------------------------------------------------|
B |----------------------------------------------------------------|
F#|----------------------------------------------------------------|
C#|----------------------------------------------------------------|

C#|----17--15------17--15------15--------------14--19--------------|
G#|15----------15----------15--------------17----------------------|
E |------------------------------------16--------------------------|
B |----------------------------------------------------------------|
F#|----------------------------------------------------------------|
C#|----------------------------------------------------------------|

C#|----------------------------------------------------------------|
G#|----------------------------------------------------------------|
E |----------------------------------------------------------------|
B |----------------------------------------------------------------|
F#|----12------10------------------9-----------7-------------------|
C#|0-------0-------------------0-----------0-----------------------|

C#|----------------------------------------------------------------|
G#|----------------------------------------------------------------|
E |----------------------------------------------------------------|
B |----------------------------------------------------------------|
F#|----12------10------------------9-------10--7-------------------|
C#|0-------0-------------------0-----------------------------------|

 
C#|----------------------------------------------------------------|
G#|----------------------------------------------------------------|
E |----------------------------------------------------------------|
B |----------------9-----------------------9-------8-------7-------|
F#|2---------------7-----------2-----------7-------6-------5-------|
C#|0---------------------------0-----------------------------------|
		

C#|----------------------------------------------------------------|
G#|----------------------------------------------------------------|
E |----------------------------------------------------------------|
B |----------------9-----------------------9--------------12-------|
F#|2---------------7-----------2-----------7-------2------10-------|
C#|0---------------------------0-------------------0---------------|




C#|----------------------------------------------------------------|
G#|----------------------------------------------------------------|
E |----------------------------------------------------------------|
B |----------------9-----------------------9-------8-------7-------|
F#|2---------------7-------2---------------7-------6-------5-------|
C#|0---0---0---0-----------0---0---0---0---------------------------|

C#|----------------------------------------------------------------|
G#|9---------------------------------------------------------------|
E |----------------11----------9-----------------------------------|
B |----------------------------------------------------------------|
F#|----------------------------------------------------------------|
C#|----------------------------------------------------------------|

C#|----------------------------------------------------------------|
G#|9---------------------------10------12--9-----------------------|
E |----------------11----------------------------------------------|
B |----------------------------------------------------------------|
F#|----------------------------------------------------------------|
C#|----------------------------------------------------------------|

C#|----------------------------------------------------------------|
G#|12--13--13--12--13--13--12--13------15--12----------------------|
E |----------------------------------------------------------------|
B |----------------------------------------------------------------|
F#|----------------------------------------------------------------|
C#|----------------------------------------------------------------|
			

C#|----------------------------------------------------------------|
G#|12--13--13--12--13--13--12--13--13--12--13--13--12--13--15------|
E |----------------------------------------------------------------|
B |----------------------------------------------------------------|
F#|----------------------------------------------------------------|
C#|----------------------------------------------------------------|


C#|----------------------------------------------------------------|
G#|----------------------------------------------------------------|
E |----------------------------------------------------------------|
B |----------------------------------------------------------------|
F#|7-----------------------7---5---9-----------------------9---7---|
C#|5-----------------------5---3---7-----------------------7---5---|

C#|----------------------------------------------------------------|
G#|----------------------------------------------------------------|
E |----------------------------------------------------------------|
B |------------------------------------------------9---------------|
F#|5-----------------------5---7---2---------------7-------2-------|
C#|3-----------------------3---5---0---0---0---0-----------0---0---|
                                      p.m. .   .               .
C#|----------------------------------------------------------------|
G#|----------------------------------------------------------------|
E |----------------------------------------------------------------|
B |--------5-------7-------6---------------------------------------|
F#|--------7-------6-------5-------7-----------------------7---5---|
C#|0---0---------------------------5-----------------------5---3---|
   .   .
C#|----------------------------------------------------------------|
G#|----------------------------------------------------------------|
E |----------------------------------------------------------------|
B |----------------------------------------------------------------|
F#|9-----------------------9---7---5-----------------------5---7---|
C#|7-----------------------7---5---3-----------------------3---5---|


C#|----12--14~------------9---11~--------h12p11p9h11~------------|
G#|12------------------9-------------------------------------------|
E |----------------------------------------------------------------|
B |----------------------------------------------------------------|
F#|----------------------------------------------------------------|
C#|----------------------------------------------------------------|

C#|----12--14~------------7---------------------------------------|
G#|12------------------7-------------------------------------------|
E |----------------------------9-----------------------------------|
B |----------------------------------------------------------------|
F#|----------------------------------------------------------------|
C#|----------------------------------------------------------------|


C#|----------------------------------------------------------------|
G#|----------------------------------------------------------------|
E |----------------------------------------------------------------|
B |----------------9-----------------------9-------8-------7-------|
F#|2---------------7-------2---------------7-------6-------5-------|
C#|0---0---0---0-----------0---0---0---0---------------------------|
      

C#|----------------------------------------------------------------|
G#|----------------------------------------------------------------|
E |----------------------------------------------------------------|
B |----------------9-----------------------9-------8-------7-------|
F#|2---------------7-------2---------------7-------6-------5-------|
C#|0---0---0---0-----------0---0---0---0---------------------------|


C#|----------------------------------------------------------------|
G#|9---------------------------------------------------------------|
E |----------------11----------9-----------------------------------|
B |----------------------------------------------------------------|
F#|----------------------------------------------------------------|
C#|----------------------------------------------------------------|

C#|----------------------------------------------------------------|
G#|9---------------------------10------12--9-----------------------|
E |----------------11----------------------------------------------|
B |----------------------------------------------------------------|
F#|----------------------------------------------------------------|
C#|----------------------------------------------------------------|

C#|----------------------------------------------------------------|
G#|12--13--13--12--13--13--12--13------15--12----------------------|
E |----------------------------------------------------------------|
B |----------------------------------------------------------------|
F#|----------------------------------------------------------------|
C#|----------------------------------------------------------------|
			

C#|----------------------------------------------------------------|
G#|12--13--13--12--13--13--12--13--13--12--13--13--12--13--15------|
E |----------------------------------------------------------------|
B |----------------------------------------------------------------|
F#|----------------------------------------------------------------|
C#|----------------------------------------------------------------|


C#|----------------------------------------------------------------|
G#|----------------------------------------------------------------|
E |----------------------------------------------------------------|
B |----------------------------------------------------------------|
F#|7-----------------------7---5---9-----------------------9---7---|
C#|5-----------------------5---3---7-----------------------7---5---|

C#|----------------------------------------------------------------|
G#|----------------------------------------------------------------|
E |----------------------------------------------------------------|
B |------------------------------------------------9---------------|
F#|5-----------------------5---7---2---------------7-------2-------|
C#|3-----------------------3---5---0---0---0---0-----------0---0---|
                                      p.m. .   .               .
C#|----------------------------------------------------------------|
G#|----------------------------------------------------------------|
E |----------------------------------------------------------------|
B |--------5-------7-------6---------------------------------------|
F#|--------7-------6-------5-------7-----------------------7---5---|
C#|0---0---------------------------5-----------------------5---3---|
   .   .
C#|----------------------------------------------------------------|
G#|----------------------------------------------------------------|
E |----------------------------------------------------------------|
B |----------------------------------------------------------------|
F#|9-----------------------9---7---5-----------------------5---7---|
C#|7-----------------------7---5---3-----------------------3---5---|

C#|----12--14~------------9---11~--------h12p11p9h11~------------|
G#|12------------------9-------------------------------------------|
E |----------------------------------------------------------------|
B |----------------------------------------------------------------|
F#|----------------------------------------------------------------|
C#|----------------------------------------------------------------|

C#|----12--14~------------7---------------------------------------|
G#|12------------------7-------6-----------------------------------|
E |----------------------------------------------------------------|
B |----------------------------------------------------------------|
F#|----------------------------------------------------------------|


C#|----------------------------------------------------------------|
G#|----------------------------------------------------------------|
E |----------------------------------------------------------------|
B |----------------------------------------------------------------|
F#|--------------------------------4-------------------------------|
C#|1-----------------------1---3-------------------3-------4---3---|


C#|----------------------------------------------------------------|
G#|----------------------------------------------------------------|
E |----------------------------------------------------------------|
B |----7-------5---------------4-----------------------------------|
F#|----------------------------------------7~----------------------|
C#|0-------0---------------0-----------0---------------------------|
 p.m.      .               .           .
C#|----------------------------------------------------------------|
G#|----------------------------------------------------------------|
E |----------------------------------------------------------------|
B |----7-------5---------------4-------5---7~----------------------|
F#|----------------------------------------------------------------|
C#|0-------0---------------0---------------------------------------|
  

C#|----------------------------------------------------------------|
G#|12--13--13--12--13--13--12--13-------15---12--------------------|
E |----------------------------------------------------------------|
B |----------------------------------------------------------------|
F#|----------------------------------------------------------------|
C#|----------------------------------------------------------------|
    
C#|------------------------|
G#|12--13--13--12--13--13--|       
E |------------------------|
B |------------------------|
F#|------------------------|
C#|------------------------|


C#|----------------------------------------------------------------|
G#|----------------------------------------------------------------|
E |----------------------------------------------------------------|
B |----------------9-----------------------9-------8-------7-------|
F#|2---------------7-------2---------------7-------6-------5-------|
C#|0---0---0---0-----------0---0---0---0---------------------------|


C#|----------------------------------------------------------------|
G#|9---------------------------------------------------------------|
E |----------------11----------9-----------------------------------|
B |----------------------------------------------------------------|
F#|----------------------------------------------------------------|
C#|----------------------------------------------------------------|
                         

C#|----------------------------------------------------------------|
G#|9---------------------------10------12--9-----------------------|
E |----------------11----------------------------------------------|
B |----------------------------------------------------------------|
F#|----------------------------------------------------------------|
C#|----------------------------------------------------------------|

C#|----------------------------------------------------------------|
G#|12--13--13--12--13--13--12--13------15--12----------------------|
E |----------------------------------------------------------------|
B |----------------------------------------------------------------|
F#|----------------------------------------------------------------|
C#|----------------------------------------------------------------|
			

C#|----------------------------------------------------------------|
G#|12--13--13--12--13--13--12--13--13--12--13--13--12--13--15------|
E |----------------------------------------------------------------|
B |----------------------------------------------------------------|
F#|----------------------------------------------------------------|
C#|----------------------------------------------------------------|


C#|----------------------------------------------------------------|
G#|----------------------------------------------------------------|
E |----------------------------------------------------------------|
B |----------------------------------------------------------------|
F#|7-----------------------7---5---9-----------------------9---7---|
C#|5-----------------------5---3---7-----------------------7---5---|

C#|----------------------------------------------------------------|
G#|----------------------------------------------------------------|
E |----------------------------------------------------------------|
B |------------------------------------------------9---------------|
F#|5-----------------------5---7---2---------------7-------2-------|
C#|3-----------------------3---5---0---0---0---0-----------0---0---|
                                      p.m. .   .               .
C#|----------------------------------------------------------------|
G#|----------------------------------------------------------------|
E |----------------------------------------------------------------|
B |--------5-------7-------6---------------------------------------|
F#|--------7-------6-------5-------7-----------------------7---5---|
C#|0---0---------------------------5-----------------------5---3---|
   .   .
C#|----------------------------------------------------------------|
G#|----------------------------------------------------------------|
E |----------------------------------------------------------------|
B |----------------------------------------------------------------|
F#|9-----------------------9---7---5-----------------------5---7---|
C#|7-----------------------7---5---3-----------------------3---5---|

:
C#|----12--14~------------9---11~--------h12p11p9h11~------------|
G#|12------------------9-------------------------------------------|
E |----------------------------------------------------------------|
B |----------------------------------------------------------------|
F#|----------------------------------------------------------------|
C#|----------------------------------------------------------------|

C#|----12--14~------------7---------------------------------------|
G#|12------------------7-------------------------------------------|
E |----------------------------9-----------------------------------|
B |----------------------------------------------------------------|
F#|----------------------------------------------------------------|
C#|----------------------------------------------------------------|


C#|----------------------------------------------------------------|
G#|----------------------------------------------------------------|
E |----------------------------------------------------------------|
B |----7-------5---------------4-----------------------------------|
F#|----------------------------------------7~----------------------|
C#|0-------0---------------0-----------0---------------------------|
 
C#|----------------------------------------------------------------|
G#|----------------------------------------------------------------|
E |----------------------------------------------------------------|
B |----7-------5---------------4-------5---7~----------------------|
F#|----------------------------------------------------------------|
C#|0-------0---------------0---------------------------------------|
   

C#|----------------------------------------------------------------|
G#|----------------------------------------------------------------|
E |------------4---------------5-------7---4~---------------------|
B |----7-----------------------------------------------------------|
F#|----------------------------------------------------------------|
C#|0-------0-------------------------------------------------------|
 
C#|----------------------------------------------------------------|
G#|----------------------------------------------------------------|
E |----------------------------------------------------------------|
B |----7-------5---------------4-------5---7~----------------------|
F#|----------------------------------------------------------------|
C#|0-------0---------------0---------------------------------------|


Текст, аккорды и табулатура для песни "Base Level Erotica", исполняет "My Dying Bride".
Используемые в песне аккорды можно найти в разделе Как брать аккорды. Аккорды для шестиструнной гитары. Другие песни можно найти на нашем сайте, воспользовавшись алфавитным указателем вверху страницы.


 
Ошибка в тексте? Выделите ошибку и нажмите Ctrl+Enter