----------------------------------------------------------------------------
               The Light Behind Your Eyes
                  My Chemical Romance
----------------------------------------------------------------------------
 
This tab has been postponed time and time again because of the time consumption of
everyday life. Now that I???ve finished it, I???m once again addicted to this song. This is
probably MCR???s most heart-felt song, and it is outstanding in every perspective. NOTE: A
few parts of the guitar solo are improvised. Enjoy!

Username: dkm817 (same on X box live)
Youtube Cover: 

Guitar 1 Acoustic (E A D G B E)
Guitar 2 Rhythmic (E A D G B E)
Guitar 3 Lead   (E A D G B E)

NOTE: This was exported off of guitar pro.

Guitar 1

Starts at (00:29)

  Q    S  S  E   Q    E   S  S
--(3)----(3)-(3)-(3)--(3)----(3)--(3)-(3)-|
--(3)----(3)-(3)-(3)--(3)----(3)--(3)-(3)-|
---x------x---x---x----x------x----x---x--|
---2------2---2---2----0------0----0---0--|
---2------2---2---x----2------2----2---2--|
---0------0---0---2----3------3----3---3--|


  Q    E   S  S  Q    E   S  S
--(0)----(0)--(0)-(0)-(2)----(2)--(2)-(2)-|
--(1)----(1)--(1)-(1)-(3)----(3)--(3)-(3)-|
---0------0----0---0---2------2----2---2--|
---2------2----2---2---0------0----0---0--|
---3------3----3---3---0------0----0---0--|
------------------------------------------|


  Q    S  S  E   Q    E   S  S
--(3)----(3)-(3)-(3)--(3)----(3)--(3)-(3)-|
--(3)----(3)-(3)-(3)--(3)----(3)--(3)-(3)-|
---x------x---x---x----x------x----x---x--|
---2------2---2---2----0------0----0---0--|
---2------2---2---x----2------2----2---2--|
---0------0---0---2----3------3----3---3--|


  Q    E   S  S  Q    E   S  S
--(0)----(0)--(0)-(0)-(2)----(2)--(2)-(2)-|
--(1)----(1)--(1)-(1)-(3)----(3)--(3)-(3)-|
---0------0----0---0---2------2----2---2--|
---2------2----2---2---0------0----0---0--|
---3------3----3---3---0------0----0---0--|
------------------------------------------|


  Q    S  S  E   Q    E   S  S
--(3)----(3)-(3)-(3)--(3)----(3)--(3)-(3)-|
--(3)----(3)-(3)-(3)--(3)----(3)--(3)-(3)-|
---x------x---x---x----x------x----x---x--|
---2------2---2---2----0------0----0---0--|
---2------2---2---x----2------2----2---2--|
---0------0---0---2----3------3----3---3--|


  Q    E   S  S  Q    E   S  S
--(0)----(0)--(0)-(0)-(2)----(2)--(2)-(2)-|
--(1)----(1)--(1)-(1)-(3)----(3)--(3)-(3)-|
---0------0----0---0---2------2----2---2--|
---2------2----2---2---0------0----0---0--|
---3------3----3---3---0------0----0---0--|
------------------------------------------|


  Q    S  S  E   Q    E   S  S
--(3)----(3)-(3)-(3)--(3)----(3)--(3)-(3)-|
--(3)----(3)-(3)-(3)--(3)----(3)--(3)-(3)-|
---x------x---x---x----x------x----x---x--|
---2------2---2---2----0------0----0---0--|
---2------2---2---x----2------2----2---2--|
---0------0---0---2----3------3----3---3--|


  Q    E   S  S  Q    E   S  S
--(0)----(0)--(0)-(0)-(2)----(2)--(2)-(2)-|
--(1)----(1)--(1)-(1)-(3)----(3)--(3)-(3)-|
---0------0----0---0---2------2----2---2--|
---2------2----2---2---0------0----0---0--|
---3------3----3---3---0------0----0---0--|
------------------------------------------|


  Q    S  S  E   Q    E   S  S
--(3)----(3)-(3)-(3)--(3)----(3)--(3)-(3)-|
--(3)----(3)-(3)-(3)--(3)----(3)--(3)-(3)-|
---x------x---x---x----x------x----x---x--|
---2------2---2---2----0------0----0---0--|
---2------2---2---x----2------2----2---2--|
---0------0---0---2----3------3----3---3--|


  Q    E   S  S  Q    E   S  S
--(0)----(0)--(0)-(0)-(2)----(2)--(2)-(2)-|
--(1)----(1)--(1)-(1)-(3)----(3)--(3)-(3)-|
---0------0----0---0---2------2----2---2--|
---2------2----2---2---0------0----0---0--|
---3------3----3---3---0------0----0---0--|
------------------------------------------|


  Q    S  S  E   Q    E   S  S
--(3)----(3)-(3)-(3)--(3)----(3)--(3)-(3)-|
--(3)----(3)-(3)-(3)--(3)----(3)--(3)-(3)-|
---x------x---x---x----x------x----x---x--|
---2------2---2---2----0------0----0---0--|
---2------2---2---x----2------2----2---2--|
---0------0---0---2----3------3----3---3--|


  Q    E   S  S  Q    E   S  S
--(0)----(0)--(0)-(0)-(2)----(2)--(2)-(2)-|
--(1)----(1)--(1)-(1)-(3)----(3)--(3)-(3)-|
---0------0----0---0---2------2----2---2--|
---2------2----2---2---0------0----0---0--|
---3------3----3---3---0------0----0---0--|
------------------------------------------|


  E   E   E   E   E   E   E   S  S
--(0)--(0)--(0)--(0)--(0)--(0)--(0)--(0)-(0)-|
--(1)--(1)--(1)--(1)--(1)--(1)--(1)--(1)-(1)-|
---0----0----0----0----0----0----0----0---0--|
---2----2----2----2----2----2----2----2---2--|
---3----3----3----3----3----3----3----3---3--|
---------------------------------------------|


  E   E   E   E   E   E   E   S  S
--(2)--(3)--(2)--(3)--(2)--(3)--(2)--(3)-(3)-|
--(3)--(3)--(3)--(3)--(3)--(3)--(3)--(3)-(3)-|
---2----2----2----2----2----2----2----2---2--|
---0----0----0----0----0----0----0----0---0--|
---0----0----0----0----0----0----0----0---0--|
---------------------------------------------|


  E   E   E   E   E   E   E   S  S
--(0)--(0)--(0)--(0)--(0)--(0)--(0)--(0)-(0)-|
--(1)--(1)--(1)--(1)--(1)--(1)--(1)--(1)-(1)-|
---0----0----0----0----0----0----0----0---0--|
---2----2----2----2----2----2----2----2---2--|
---3----3----3----3----3----3----3----3---3--|
---------------------------------------------|


  E   E   E   E   E   E   E   S  S
--(2)--(3)--(2)--(3)--(2)--(3)--(2)--(3)-(3)-|
--(3)--(3)--(3)--(3)--(3)--(3)--(3)--(3)-(3)-|
---2----2----2----2----2----2----2----2---2--|
---0----0----0----0----0----0----0----0---0--|
---0----0----0----0----0----0----0----0---0--|
---------------------------------------------|


  Q    S  S  E   Q    E   S  S
--(3)----(3)-(3)-(3)--(3)----(3)--(3)-(3)-|
--(3)----(3)-(3)-(3)--(3)----(3)--(3)-(3)-|
---x------x---x---x----x------x----x---x--|
---2------2---2---2----0------0----0---0--|
---2------2---2---x----2------2----2---2--|
---0------0---0---2----3------3----3---3--|


  Q    E   S  S  Q    E   S  S
--(0)----(0)--(0)-(0)-(2)----(2)--(2)-(2)-|
--(1)----(1)--(1)-(1)-(3)----(3)--(3)-(3)-|
---0------0----0---0---2------2----2---2--|
---2------2----2---2---0------0----0---0--|
---3------3----3---3---0------0----0---0--|
------------------------------------------|


  Q    S  S  E   Q    E   S  S
--(3)----(3)-(3)-(3)--(3)----(3)--(3)-(3)-|
--(3)----(3)-(3)-(3)--(3)----(3)--(3)-(3)-|
---x------x---x---x----x------x----x---x--|
---2------2---2---2----0------0----0---0--|
---2------2---2---x----2------2----2---2--|
---0------0---0---2----3------3----3---3--|


  Q    E   S  S  Q    E   S  S
--(0)----(0)--(0)-(0)-(2)----(2)--(2)-(2)-|
--(1)----(1)--(1)-(1)-(3)----(3)--(3)-(3)-|
---0------0----0---0---2------2----2---2--|
---2------2----2---2---0------0----0---0--|
---3------3----3---3---0------0----0---0--|
------------------------------------------|


  Q    S  S  E   Q    E   S  S
--(3)----(3)-(3)-(3)--(3)----(3)--(3)-(3)-|
--(3)----(3)-(3)-(3)--(3)----(3)--(3)-(3)-|
---x------x---x---x----x------x----x---x--|
---2------2---2---2----0------0----0---0--|
---2------2---2---x----2------2----2---2--|
---0------0---0---2----3------3----3---3--|


  Q    E   S  S  Q    E   S  S
--(0)----(0)--(0)-(0)-(2)----(2)--(2)-(2)-|
--(1)----(1)--(1)-(1)-(3)----(3)--(3)-(3)-|
---0------0----0---0---2------2----2---2--|
---2------2----2---2---0------0----0---0--|
---3------3----3---3---0------0----0---0--|
------------------------------------------|


  Q    S  S  E   Q    E   S  S
--(3)----(3)-(3)-(3)--(3)----(3)--(3)-(3)-|
--(3)----(3)-(3)-(3)--(3)----(3)--(3)-(3)-|
---x------x---x---x----x------x----x---x--|
---2------2---2---2----0------0----0---0--|
---2------2---2---x----2------2----2---2--|
---0------0---0---2----3------3----3---3--|


  Q    E   S  S  Q    E   S  S   E  E  E  E  E  E  E  E
--(0)----(0)--(0)-(0)-(2)----(2)--(2)-(2)-|--3--(3)--3--(3)--3--(3)--3--(3)--|
--(1)----(1)--(1)-(1)-(3)----(3)--(3)-(3)-|--3--(3)--3--(3)--3--(3)--3--(3)--|
---0------0----0---0---2------2----2---2--|--x---x---x---x---x---x---x---x---|
---2------2----2---2---0------0----0---0--|--2---2---2---2---2---2---2---2---|
---3------3----3---3---0------0----0---0--|--2---2---2---2---2---2---2---2---|
------------------------------------------|--0---0---0---0---0---0---0---0---|


 E  E  E  E  E  E  E  S  S
--3--(3)--3--(3)--3--(3)--3--(3)-(3)-|
--3--(3)--3--(3)--3--(3)--3--(3)-(3)-|
--x---x---x---x---x---x---x---x---x--|
--2---2---2---2---2---2---2---2---2--|
--2---2---2---2---2---2---2---2---2--|
--0---0---0---0---0---0---0---0---0--|


  Q    S  S  E   Q    E   S  S
--(3)----(3)-(3)-(3)--(3)----(3)--(3)-(3)-|
--(3)----(3)-(3)-(3)--(3)----(3)--(3)-(3)-|
---x------x---x---x----x------x----x---x--|
---2------2---2---2----0------0----0---0--|
---2------2---2---x----2------2----2---2--|
---0------0---0---2----3------3----3---3--|


  Q    E   S  S  Q    E   S  S
--(0)----(0)--(0)-(0)-(2)----(2)--(2)-(2)-|
--(1)----(1)--(1)-(1)-(3)----(3)--(3)-(3)-|
---0------0----0---0---2------2----2---2--|
---2------2----2---2---0------0----0---0--|
---3------3----3---3---0------0----0---0--|
------------------------------------------|


  Q    S  S  E   Q    E   S  S
--(3)----(3)-(3)-(3)--(3)----(3)--(3)-(3)-|
--(3)----(3)-(3)-(3)--(3)----(3)--(3)-(3)-|
---x------x---x---x----x------x----x---x--|
---2------2---2---2----0------0----0---0--|
---2------2---2---x----2------2----2---2--|
---0------0---0---2----3------3----3---3--|


  Q    E   S  S  Q    E   S  S
--(0)----(0)--(0)-(0)-(2)----(2)--(2)-(2)-|
--(1)----(1)--(1)-(1)-(3)----(3)--(3)-(3)-|
---0------0----0---0---2------2----2---2--|
---2------2----2---2---0------0----0---0--|
---3------3----3---3---0------0----0---0--|
------------------------------------------|


  Q    S  S  E   Q    E   S  S
--(3)----(3)-(3)-(3)--(3)----(3)--(3)-(3)-|
--(3)----(3)-(3)-(3)--(3)----(3)--(3)-(3)-|
---x------x---x---x----x------x----x---x--|
---2------2---2---2----0------0----0---0--|
---2------2---2---x----2------2----2---2--|
---0------0---0---2----3------3----3---3--|


  Q    E   S  S  Q    E   S  S
--(0)----(0)--(0)-(0)-(2)----(2)--(2)-(2)-|
--(1)----(1)--(1)-(1)-(3)----(3)--(3)-(3)-|
---0------0----0---0---2------2----2---2--|
---2------2----2---2---0------0----0---0--|
---3------3----3---3---0------0----0---0--|
------------------------------------------|


  Q    S  S  E   Q    E   S  S
--(3)----(3)-(3)-(3)--(3)----(3)--(3)-(3)-|
--(3)----(3)-(3)-(3)--(3)----(3)--(3)-(3)-|
---x------x---x---x----x------x----x---x--|
---2------2---2---2----0------0----0---0--|
---2------2---2---x----2------2----2---2--|
---0------0---0---2----3------3----3---3--|


  Q    E   S  S  Q    E   S  S
--(0)----(0)--(0)-(0)-(2)----(2)--(2)-(2)-|
--(1)----(1)--(1)-(1)-(3)----(3)--(3)-(3)-|
---0------0----0---0---2------2----2---2--|
---2------2----2---2---0------0----0---0--|
---3------3----3---3---0------0----0---0--|
------------------------------------------|


  E   E   E   E   E   E   E   S  S
--(0)--(0)--(0)--(0)--(0)--(0)--(0)--(0)-(0)-|
--(1)--(1)--(1)--(1)--(1)--(1)--(1)--(1)-(1)-|
---0----0----0----0----0----0----0----0---0--|
---2----2----2----2----2----2----2----2---2--|
---3----3----3----3----3----3----3----3---3--|
---------------------------------------------|


  E   E   E   E   E   E   E   S  S
--(2)--(3)--(2)--(3)--(2)--(3)--(2)--(3)-(3)-|
--(3)--(3)--(3)--(3)--(3)--(3)--(3)--(3)-(3)-|
---2----2----2----2----2----2----2----2---2--|
---0----0----0----0----0----0----0----0---0--|
---0----0----0----0----0----0----0----0---0--|
---------------------------------------------|


  E   E   E   E   E   E   E   S  S
--(0)--(0)--(0)--(0)--(0)--(0)--(0)--(0)-(0)-|
--(1)--(1)--(1)--(1)--(1)--(1)--(1)--(1)-(1)-|
---0----0----0----0----0----0----0----0---0--|
---2----2----2----2----2----2----2----2---2--|
---3----3----3----3----3----3----3----3---3--|
---------------------------------------------|


  E   E   E   E   E   E   E   S  S   Q   S S E Q   E S S
--(2)--(3)--(2)--(3)--(2)--(3)--(2)--(3)-(3)-|--3----3-3-3--3----3--3-3-|
--(3)--(3)--(3)--(3)--(3)--(3)--(3)--(3)-(3)-|--3----3-3-3--3----3--3-3-|
---2----2----2----2----2----2----2----2---2--|--x----x-x-x--x----x--x-x-|
---0----0----0----0----0----0----0----0---0--|--2----2-2-2--0----0--0-0-|
---0----0----0----0----0----0----0----0---0--|--2----2-2-x--2----2--2-2-|
---------------------------------------------|--0----0-0-2--3----3--3-3-|


 Q   E S S Q   E S S   Q   S S E Q   E S S
--0----0--0-0-2----2--2-2-|--3----3-3-3--3----3--3-3-|
--1----1--1-1-3----3--3-3-|--3----3-3-3--3----3--3-3-|
--0----0--0-0-2----2--2-2-|--x----x-x-x--x----x--x-x-|
--2----2--2-2-0----0--0-0-|--2----2-2-2--0----0--0-0-|
--3----3--3-3-0----0--0-0-|--2----2-2-x--2----2--2-2-|
--------------------------|--0----0-0-2--3----3--3-3-|


 Q   E S S Q   E S S   Q   S S E Q   E S S
--0----0--0-0-2----2--2-2-|--3----3-3-3--3----3--3-3-|
--1----1--1-1-3----3--3-3-|--3----3-3-3--3----3--3-3-|
--0----0--0-0-2----2--2-2-|--x----x-x-x--x----x--x-x-|
--2----2--2-2-0----0--0-0-|--2----2-2-2--0----0--0-0-|
--3----3--3-3-0----0--0-0-|--2----2-2-x--2----2--2-2-|
--------------------------|--0----0-0-2--3----3--3-3-|


 Q   E S S Q   E S S   Q   S S E Q   E S S
--0----0--0-0-2----2--2-2-|--3----3-3-3--3----3--3-3-|
--1----1--1-1-3----3--3-3-|--3----3-3-3--3----3--3-3-|
--0----0--0-0-2----2--2-2-|--x----x-x-x--x----x--x-x-|
--2----2--2-2-0----0--0-0-|--2----2-2-2--0----0--0-0-|
--3----3--3-3-0----0--0-0-|--2----2-2-x--2----2--2-2-|
--------------------------|--0----0-0-2--3----3--3-3-|


 Q   E S S Q   E S S   E E E E E E E S S
--0----0--0-0-2----2--2-2-|--0--0--0--0--0--0--0--0-0-|
--1----1--1-1-3----3--3-3-|--1--1--1--1--1--1--1--1-1-|
--0----0--0-0-2----2--2-2-|--0--0--0--0--0--0--0--0-0-|
--2----2--2-2-0----0--0-0-|--2--2--2--2--2--2--2--2-2-|
--3----3--3-3-0----0--0-0-|--3--3--3--3--3--3--3--3-3-|
--------------------------|---------------------------|


 E E E E E E E S S   E E E E E E E S S
--2--3--2--3--2--3--2--3-3-|--0--0--0--0--0--0--0--0-0-|
--3--3--3--3--3--3--3--3-3-|--1--1--1--1--1--1--1--1-1-|
--2--2--2--2--2--2--2--2-2-|--0--0--0--0--0--0--0--0-0-|
--0--0--0--0--0--0--0--0-0-|--2--2--2--2--2--2--2--2-2-|
--0--0--0--0--0--0--0--0-0-|--3--3--3--3--3--3--3--3-3-|
---------------------------|---------------------------|


 E E E E E E E S S   E E E E E E E E
--2--3--2--3--2--3--2--3-3-|--0--0--0--0--0--0--0--0--|
--3--3--3--3--3--3--3--3-3-|--0--0--0--0--0--0--0--0--|
--2--2--2--2--2--2--2--2-2-|--0--0--0--0--0--0--0--0--|
--0--0--0--0--0--0--0--0-0-|--2--2--2--2--2--2--2--2--|
--0--0--0--0--0--0--0--0-0-|--2--2--2--2--2--2--2--2--|
---------------------------|--0--0--0--0--0--0--0--0--|


 E E E E E E E E   E E E E E E E E
--2--2--2--2--2--2--2--2--|--0--0--0--0--0--0--0--0--|
--3--3--3--3--3--3--3--3--|--0--0--0--0--0--0--0--0--|
--2--2--2--2--2--2--2--2--|--0--0--0--0--0--0--0--0--|
--0--0--0--0--0--0--0--0--|--2--2--2--2--2--2--2--2--|
--0--0--0--0--0--0--0--0--|--2--2--2--2--2--2--2--2--|
--------------------------|--0--0--0--0--0--0--0--0--|


 E E E E E E E E   E E E E E E E E
--0--0--0--0--0--0--0--0--|--0--0--0--0--0--0--0--0--|
--1--1--1--1--1--1--1--1--|--0--0--0--0--0--0--0--0--|
--0--0--0--0--0--0--0--0--|--0--0--0--0--0--0--0--0--|
--2--2--2--2--2--2--2--2--|--2--2--2--2--2--2--2--2--|
--3--3--3--3--3--3--3--3--|--2--2--2--2--2--2--2--2--|
--------------------------|--0--0--0--0--0--0--0--0--|


 E E E E E E E E   E E E E E E E E
--2--2--2--2--2--2--2--2--|--0--0--0--0--0--0--0--0--|
--3--3--3--3--3--3--3--3--|--1--1--1--1--1--1--1--1--|
--2--2--2--2--2--2--2--2--|--0--0--0--0--0--0--0--0--|
--0--0--0--0--0--0--0--0--|--2--2--2--2--2--2--2--2--|
--0--0--0--0--0--0--0--0--|--3--3--3--3--3--3--3--3--|
--------------------------|--------------------------|


 E E E E E E E E   Q   S S E Q   E S S
--0--0--0--0--0--0--0--0--|--3----3-3-3--3----3--3-3-|
--0--0--0--0--0--0--0--0--|--3----3-3-3--3----3--3-3-|
--0--0--0--0--0--0--0--0--|--x----x-x-x--x----x--x-x-|
--2--2--2--2--2--2--2--2--|--2----2-2-2--0----0--0-0-|
--2--2--2--2--2--2--2--2--|--2----2-2-x--2----2--2-2-|
--0--0--0--0--0--0--0--0--|--0----0-0-2--3----3--3-3-|


 Q   E S S Q   E S S   Q   S S E Q   E S S
--0----0--0-0-2----2--2-2-|--3----3-3-3--3----3--3-3-|
--1----1--1-1-3----3--3-3-|--3----3-3-3--3----3--3-3-|
--0----0--0-0-2----2--2-2-|--x----x-x-x--x----x--x-x-|
--2----2--2-2-0----0--0-0-|--2----2-2-2--0----0--0-0-|
--3----3--3-3-0----0--0-0-|--2----2-2-x--2----2--2-2-|
--------------------------|--0----0-0-2--3----3--3-3-|


 Q   E S S Q   E S S   Q   S S E Q   E S S
--0----0--0-0-2----2--2-2-|--3----3-3-3--3----3--3-3-|
--1----1--1-1-3----3--3-3-|--3----3-3-3--3----3--3-3-|
--0----0--0-0-2----2--2-2-|--x----x-x-x--x----x--x-x-|
--2----2--2-2-0----0--0-0-|--2----2-2-2--0----0--0-0-|
--3----3--3-3-0----0--0-0-|--2----2-2-x--2----2--2-2-|
--------------------------|--0----0-0-2--3----3--3-3-|


 Q   E S S Q   E S S   Q   S S E Q   E S S
--0----0--0-0-2----2--2-2-|--3----3-3-3--3----3--3-3-|
--1----1--1-1-3----3--3-3-|--3----3-3-3--3----3--3-3-|
--0----0--0-0-2----2--2-2-|--x----x-x-x--x----x--x-x-|
--2----2--2-2-0----0--0-0-|--2----2-2-2--0----0--0-0-|
--3----3--3-3-0----0--0-0-|--2----2-2-x--2----2--2-2-|
--------------------------|--0----0-0-2--3----3--3-3-|


 Q   E S S Q   E S S   E E E E E E E S S
--0----0--0-0-2----2--2-2-|--0--0--0--0--0--0--0--0-0-|
--1----1--1-1-3----3--3-3-|--1--1--1--1--1--1--1--1-1-|
--0----0--0-0-2----2--2-2-|--0--0--0--0--0--0--0--0-0-|
--2----2--2-2-0----0--0-0-|--2--2--2--2--2--2--2--2-2-|
--3----3--3-3-0----0--0-0-|--3--3--3--3--3--3--3--3-3-|
--------------------------|---------------------------|


 E E E E E E E S S   E E E E E E E S S
--2--3--2--3--2--3--2--3-3-|--0--0--0--0--0--0--0--0-0-|
--3--3--3--3--3--3--3--3-3-|--1--1--1--1--1--1--1--1-1-|
--2--2--2--2--2--2--2--2-2-|--0--0--0--0--0--0--0--0-0-|
--0--0--0--0--0--0--0--0-0-|--2--2--2--2--2--2--2--2-2-|
--0--0--0--0--0--0--0--0-0-|--3--3--3--3--3--3--3--3-3-|
---------------------------|---------------------------|


 E E E E E E E S S   E E E E E E E S S
--2--3--2--3--2--3--2--3-3-|--0--0--0--0--0--0--0--0-0-|
--3--3--3--3--3--3--3--3-3-|--1--1--1--1--1--1--1--1-1-|
--2--2--2--2--2--2--2--2-2-|--0--0--0--0--0--0--0--0-0-|
--0--0--0--0--0--0--0--0-0-|--2--2--2--2--2--2--2--2-2-|
--0--0--0--0--0--0--0--0-0-|--3--3--3--3--3--3--3--3-3-|
---------------------------|---------------------------|


 E E E E E E E S S   E E E E E E E S S
--2--3--2--3--2--3--2--3-3-|--0--0--0--0--0--0--0--0-0-|
--3--3--3--3--3--3--3--3-3-|--1--1--1--1--1--1--1--1-1-|
--2--2--2--2--2--2--2--2-2-|--0--0--0--0--0--0--0--0-0-|
--0--0--0--0--0--0--0--0-0-|--2--2--2--2--2--2--2--2-2-|
--0--0--0--0--0--0--0--0-0-|--3--3--3--3--3--3--3--3-3-|
---------------------------|---------------------------|


 E E E E E E E S S   E E E E E E E S S
--2--3--2--3--2--3--2--3-3-|--0--0--0--0--0--0--0--0-0-|
--3--3--3--3--3--3--3--3-3-|--1--1--1--1--1--1--1--1-1-|
--2--2--2--2--2--2--2--2-2-|--0--0--0--0--0--0--0--0-0-|
--0--0--0--0--0--0--0--0-0-|--2--2--2--2--2--2--2--2-2-|
--0--0--0--0--0--0--0--0-0-|--3--3--3--3--3--3--3--3-3-|
---------------------------|---------------------------|


 E E E E E E E S S   E E E E E E E S S
--2--3--2--3--2--3--2--3-3-|--0--0--0--0--0--0--0--0-0-|
--3--3--3--3--3--3--3--3-3-|--1--1--1--1--1--1--1--1-1-|
--2--2--2--2--2--2--2--2-2-|--0--0--0--0--0--0--0--0-0-|
--0--0--0--0--0--0--0--0-0-|--2--2--2--2--2--2--2--2-2-|
--0--0--0--0--0--0--0--0-0-|--3--3--3--3--3--3--3--3-3-|
---------------------------|---------------------------|


 E E E E E E E S S   E E E E E E E S S
--2--3--2--3--2--3--2--3-3-|--0--0--0--0--0--0--0--0-0-|
--3--3--3--3--3--3--3--3-3-|--1--1--1--1--1--1--1--1-1-|
--2--2--2--2--2--2--2--2-2-|--0--0--0--0--0--0--0--0-0-|
--0--0--0--0--0--0--0--0-0-|--2--2--2--2--2--2--2--2-2-|
--0--0--0--0--0--0--0--0-0-|--3--3--3--3--3--3--3--3-3-|
---------------------------|---------------------------|


 E E E E E E E S S   E E E E E E E S S
--2--3--2--3--2--3--2--3-3-|--0--0--0--0--0--0--0--0-0-|
--3--3--3--3--3--3--3--3-3-|--1--1--1--1--1--1--1--1-1-|
--2--2--2--2--2--2--2--2-2-|--0--0--0--0--0--0--0--0-0-|
--0--0--0--0--0--0--0--0-0-|--2--2--2--2--2--2--2--2-2-|
--0--0--0--0--0--0--0--0-0-|--3--3--3--3--3--3--3--3-3-|
---------------------------|---------------------------|


                    ^
 E E E E E E E S S   W             W
--2--3--2--3--2--3--2--3-3-|--0----------------|--L----------------|----|----||
--3--3--3--3--3--3--3--3-3-|--1----------------|--L----------------|----|----||
--2--2--2--2--2--2--2--2-2-|--0----------------|--L----------------|----|----||
--0--0--0--0--0--0--0--0-0-|--2----------------|--L----------------|----|----||
--0--0--0--0--0--0--0--0-0-|--3----------------|--L----------------|----|----||
---------------------------|-------------------|-------------------|----|----||


Guitar 2

Starts at (02:24)

 PM PM PM PM PM PM PM PM
 E E E E E E E E   E E E E E E E E
--------------------------|--------------------------|
--------------------------|--------------------------|
--5--5--5--5--5--5--5--5--|--7--7--7--7--7--7--7--7--|
--5--5--5--5--5--5--5--5--|--7--7--7--7--7--7--7--7--|
--3--3--3--3--3--3--3--3--|--5--5--5--5--5--5--5--5--|
--------------------------|--------------------------|


 Q   S S E Q   E S S   Q   E S S Q   E S S
--------------------------|--------------------------|
--------------------------|--------------------------|
--------------------------|--5----5--5-5-7----7--7-7-|
--2----2-2-4--5----5--5-5-|--5----5--5-5-7----7--7-7-|
--2----2-2-4--5----5--5-5-|--3----3--3-3-5----5--5-5-|
--0----0-0-2--3----3--3-3-|--------------------------|


 Q   S S E Q   E S S   Q   E S S Q   E S S
--------------------------|--------------------------|
--------------------------|--------------------------|
--------------------------|--5----5--5-5-7----7--7-7-|
--2----2-2-4--5----5--5-5-|--5----5--5-5-7----7--7-7-|
--2----2-2-4--5----5--5-5-|--3----3--3-3-5----5--5-5-|
--0----0-0-2--3----3--3-3-|--------------------------|


 Q   S S E Q   E S S   Q   E S S Q   E S S
--------------------------|--------------------------|
--------------------------|--------------------------|
--------------------------|--5----5--5-5-7----7--7-7-|
--2----2-2-4--5----5--5-5-|--5----5--5-5-7----7--7-7-|
--2----2-2-4--5----5--5-5-|--3----3--3-3-5----5--5-5-|
--0----0-0-2--3----3--3-3-|--------------------------|


                                      ^
 Q   S S E Q   E S S   Q   E S S Q   E S S   W
--------------------------|--------------------------|--3----------------|
--------------------------|--------------------------|--3----------------|
--------------------------|--5----5--5-5-7----7--7-7-|--5----------------|
--2----2-2-4--5----5--5-5-|--5----5--5-5-7----7--7-7-|--5----------------|
--2----2-2-4--5----5--5-5-|--3----3--3-3-5----5--5-5-|--3----------------|
--0----0-0-2--3----3--3-3-|--------------------------|-------------------|


 ^             ^             ^
 W             W             W
--5----------------|--3----------------|--5----------------|
--5----------------|--3----------------|--5----------------|
--7----------------|--5----------------|--7----------------|
--7----------------|--5----------------|--7----------------|
--5----------------|--3----------------|--5----------------|
-------------------|-------------------|-------------------|


 E E E E E E E E   E E E E E E E E
--------------------------|--------------------------|
--------------------------|--------------------------|
--------------------------|--------------------------|
--2--2--2--2--2--2--2--2--|--7--7--7--7--7--7--7--7--|
--2--2--2--2--2--2--2--2--|--7--7--7--7--7--7--7--7--|
--0--0--0--0--0--0--0--0--|--5--5--5--5--5--5--5--5--|


 E E E E E E E E   E E E E E E E E
--------------------------|--------------------------|
--------------------------|--------------------------|
--------------------------|--5--5--5--5--5--5--5--5--|
--7--7--7--7--7--7--7--7--|--5--5--5--5--5--5--5--5--|
--7--7--7--7--7--7--7--7--|--3--3--3--3--3--3--3--3--|
--5--5--5--5--5--5--5--5--|--------------------------|


 E E E E E E E E   E E E E E E E E
--------------------------|--------------------------|
--------------------------|--------------------------|
--------------------------|--------------------------|
--2--2--2--2--2--2--2--2--|--7--7--7--7--7--7--7--7--|
--2--2--2--2--2--2--2--2--|--7--7--7--7--7--7--7--7--|
--0--0--0--0--0--0--0--0--|--5--5--5--5--5--5--5--5--|


 E E E E E E E E   E E E E E E E E
--------------------------|--------------------------|
--------------------------|--------------------------|
--5--5--5--5--5--5--5--5--|--------------------------|
--5--5--5--5--5--5--5--5--|--7--7--7--7--7--7--7--7--|
--3--3--3--3--3--3--3--3--|--7--7--7--7--7--7--7--7--|
--------------------------|--5--5--5--5--5--5--5--5--|


 Q   S S E Q   E S S   Q   E S S Q   E S S
--------------------------|--------------------------|
--------------------------|--------------------------|
--------------------------|--5----5--5-5-7----7--7-7-|
--2----2-2-4--5----5--5-5-|--5----5--5-5-7----7--7-7-|
--2----2-2-4--5----5--5-5-|--3----3--3-3-5----5--5-5-|
--0----0-0-2--3----3--3-3-|--------------------------|


 Q   S S E Q   E S S   Q   E S S Q   E S S
--------------------------|--------------------------|
--------------------------|--------------------------|
--------------------------|--5----5--5-5-7----7--7-7-|
--2----2-2-4--5----5--5-5-|--5----5--5-5-7----7--7-7-|
--2----2-2-4--5----5--5-5-|--3----3--3-3-5----5--5-5-|
--0----0-0-2--3----3--3-3-|--------------------------|


 Q   S S E Q   E S S   Q   E S S Q   E S S
--------------------------|--------------------------|
--------------------------|--------------------------|
--------------------------|--5----5--5-5-7----7--7-7-|
--2----2-2-4--5----5--5-5-|--5----5--5-5-7----7--7-7-|
--2----2-2-4--5----5--5-5-|--3----3--3-3-5----5--5-5-|
--0----0-0-2--3----3--3-3-|--------------------------|


                                      ^
 Q   S S E Q   E S S   Q   E S S Q   E S S   W
--------------------------|--------------------------|--3----------------|
--------------------------|--------------------------|--3----------------|
--------------------------|--5----5--5-5-7----7--7-7-|--5----------------|
--2----2-2-4--5----5--5-5-|--5----5--5-5-7----7--7-7-|--5----------------|
--2----2-2-4--5----5--5-5-|--3----3--3-3-5----5--5-5-|--3----------------|
--0----0-0-2--3----3--3-3-|--------------------------|-------------------|


 ^             ^             ^             ^
 W             W             W             W
--5----------------|--3----------------|--5----------------|--3----------------|
--5----------------|--3----------------|--5----------------|--3----------------|
--7----------------|--5----------------|--7----------------|--5----------------|
--7----------------|--5----------------|--7----------------|--5----------------|
--5----------------|--3----------------|--5----------------|--3----------------|
-------------------|-------------------|-------------------|-------------------|


 ^             ^             ^
 W             W             W             W
--5----------------|--3----------------|--5----------------|--L----------------|
--5----------------|--3----------------|--5----------------|--L----------------|
--7----------------|--5----------------|--7----------------|--L----------------|
--7----------------|--5----------------|--7----------------|--L----------------|
--5----------------|--3----------------|--5----------------|--L----------------|
-------------------|-------------------|-------------------|-------------------|


Guitar 3

Starts at (01:20)

                                  E E E E H
-------|-------|-------|-------|-------|-------|--------0--------------|
-------|-------|-------|-------|-------|-------|-----------3-----------|
-------|-------|-------|-------|-------|-------|-----0--------0--------|
-------|-------|-------|-------|-------|-------|-----------------------|
-------|-------|-------|-------|-------|-------|-----------------------|
-------|-------|-------|-------|-------|-------|-----------------------|


 E E E E H       E E E E H       E E E E H
--------0--------------|--------0--------------|--------0--------------|
-----------3-----------|-----------3-----------|-----------3-----------|
--L--0-----------------|-----0--------0--------|--L--0-----------------|
--------------4--------|--L--------------------|--------------4--------|
-----------------------|-----------------------|-----------------------|
-----------------------|-----------------------|-----------------------|


 E E E E H       E E E E H       E E E E H
--------0--------------|--------0--------------|--------0--------------|
-----------3-----------|-----------3-----------|-----------3-----------|
-----0--------0--------|--L--0-----------------|-----0--------0--------|
--L--------------------|--------------4--------|--L--------------------|
-----------------------|-----------------------|-----------------------|
-----------------------|-----------------------|-----------------------|


                  ^
 E E E E H       W
--------0--------------|--0----------------|-------------------|
-----------3-----------|--0----------------|-------------------|
--L--0-----------------|--0----------------|-------------------|
--------------4--------|--2----------------|-------------------|
-----------------------|--2----------------|-------------------|
-----------------------|-------------------|-------------------|


                             Q   E  Q   Q   E
-------------------|-------------------|--12----L--------10--------|
-------------------|-------------------|-----------12----------10--|
-------------------|-------------------|---------------------------|
-------------------|-------------------|---------------------------|
-------------------|-------------------|---------------------------|
-------------------|-------------------|---------------------------|


 W
-------------------|-------------------|-------------------|
--L----------------|-------------------|-------------------|
-------------------|-------------------|-------------------|
-------------------|-------------------|-------------------|
-------------------|-------------------|-------------------|
-------------------|-------------------|-------------------|


  Q   E  Q   Q   E   W              H     Q   E  E
--12----L--------10--------|-------------------|-------------------------|
-----------12----------10--|--L----------------|-----------------13--12--|
---------------------------|-------------------|--12--------L-----L------|
---------------------------|-------------------|-------------------------|
---------------------------|-------------------|-------------------------|
---------------------------|-------------------|-------------------------|


  E  Q   H     E    H     Q   E  E    E  Q   H     E
-------------------------|-------------------------|-------------------------|
---L--------10--------L--|-----------------13--12--|---L--------10--------L--|
------12-----------------|--12--------L-----L------|------12-----------------|
-------------------------|-------------------------|-------------------------|
-------------------------|-------------------------|-------------------------|
-------------------------|-------------------------|-------------------------|


 Q   E  Q   E  E   E    W             Q   E  Q   E E  E
-----------------------------|--------------------|----------------------------|
-------10b--L----L--13b--12--|---L----------------|-------10b--L----L--7---L---|
-----------------------------|--------------------|-----------------------10b--|
-----------------------------|--------------------|----------------------------|
-----------------------------|--------------------|----------------------------|
-----------------------------|--------------------|----------------------------|


 W             Q   E  Q   E  E   E    W
-------------------|-----------------------------|--------------------|
--L----------------|-------10b--L----L--13b--12--|---L----------------|
--L----------------|-----------------------------|--------------------|
-------------------|-----------------------------|--------------------|
-------------------|-----------------------------|--------------------|
-------------------|-----------------------------|--------------------|


 Q   E  Q   E E  E    W              H      Q   Q
----------------------------|-------------------|------------------------|
-------10b--L----L--7---L---|--L----------------|------------------------|
-----------------------10b--|--L----------------|------------------------|
----------------------------|-------------------|--12b--------L----10----|
----------------------------|-------------------|------------------------|
----------------------------|-------------------|------------------------|


  H     Q   E  E    H     Q   Q
-------------------------|------------------------|
-------------------------|-----------------10b----|
-----------------11--11--|--12--------L-----------|
--12--------L------------|------------------------|
-------------------------|------------------------|
-------------------------|------------------------|


  H     Q   T T T T S S   W
-----------------------------------|----------------------|
--10--------L-------------------15-|--16b~----------------|
-----------------16-14-16-14-16----|----------------------|
-----------------------------------|----------------------|
-----------------------------------|----------------------|
-----------------------------------|----------------------|


  Q    E S Q    S E  S T T   Q   E S S S S E  S  E  S
--------------------------------------|-------------------------------------|
--16b~----L--L-16b~----L--------------|----------------12-15----------------|
-------------------------14b--L-14-12-|--14----L--L-12-------14--14b-14b--L-|
--------------------------------------|-------------------------------------|
--------------------------------------|-------------------------------------|
--------------------------------------|-------------------------------------|


          PM   PM PM PM   PM
  S S E S S S S S S S S T T T T T T T T
-----------------------------------------------------------|
-----------------------------------------------------------|
--14-12-----L-12-12-12----12-12-12----------12-14-16-14-12-|
--------14--L-12-14-12-12-12-14-12-12-14-15----------------|
--------------12-14-12-12-12-14-12-------------------------|
-----------------------14----------------------------------|


  E S S S S S S S S S S S S S S   Q   E S S S Q   E S
-------------------------------------|---------------------------|
-------------------------------------|---------------------------|
-------------------------------------|---------------------------|
--14--L-L------------------5---7b-5-|--7----7--7b-5---5----L--L-|
-----------7-7-7-7b-7-7-7-7---7------|---------------7-----------|
-------------------------------------|---------------------------|


  Q   E S T S E S T S  E  S   S S Q   S S S S Q   E
--14b----L--L-12-14-12--L-L-17b-17b--L-|--17-15-14------------------------|
---------------------------------------|--------------15------------------|
---------------------------------------|-----------------14---------------|
---------------------------------------|--------------------17-16-L----L--|
---------------------------------------|----------------------------------|
---------------------------------------|----------------------------------|


 Q   E  Q   E  E   E    W             Q   E  Q   E E  E
-----------------------------|--------------------|----------------------------|
-------10b--L----L--13b--12--|---L----------------|-------10b--L----L--7---L---|
-----------------------------|--------------------|-----------------------10b--|
-----------------------------|--------------------|----------------------------|
-----------------------------|--------------------|----------------------------|
-----------------------------|--------------------|----------------------------|


 W             Q   E  Q   E  E   E    W
-------------------|-----------------------------|--------------------|
--L----------------|-------10b--L----L--13b--12--|---L----------------|
--L----------------|-----------------------------|--------------------|
-------------------|-----------------------------|--------------------|
-------------------|-----------------------------|--------------------|
-------------------|-----------------------------|--------------------|


 Q   E  Q   E E  E    W             Q   E   Q   E  E  E
----------------------------|-------------------|-----------------------------|
-------10b--L----L--7---L---|--L----------------|-----------------------------|
-----------------------10b--|--L----------------|-------11b--11----L----------|
----------------------------|-------------------|---------------------10b--9--|
----------------------------|-------------------|-----------------------------|
----------------------------|-------------------|-----------------------------|


 W             Q   E   Q   E  E  E   E   E H     E E
-------------------|-----------------------------|--------------------------|
-------------------|-----------------------------|--------------------------|
-------------------|-------11b--11----L----------|--------------------------|
--L----------------|---------------------10b--9--|--LS--14--L--------L--L--|
-------------------|-----------------------------|--------------------------|
-------------------|-----------------------------|--------------------------|


 Q   E   Q   E  E  E   W             Q   E   Q   E  E  E
-----------------------------|-------------------|-----------------------------|
-----------------------------|-------------------|-----------------------------|
-------11b--11----L----------|-------------------|-------11b--11----L----------|
---------------------10b--9--|--L----------------|---------------------10b--9--|
-----------------------------|-------------------|-----------------------------|
-----------------------------|-------------------|-----------------------------|


 E   E H     E E    Q   E   Q   E  E  E   W
--------------------------|-----------------------------|-------------------|
--------------------------|-----------------------------|-------------------|
--------------------------|-------11b--11----L----------|-------------------|
--LS--14--L--------L--L--|---------------------10b--9--|--L----------------|
--------------------------|-----------------------------|-------------------|
--------------------------|-----------------------------|-------------------|


 Q   E   Q   E  E  E   E   E H     E E
-----------------------------|--------------------------|
-----------------------------|--------------------------|
-------11b--11----L----------|--------------------------|
---------------------10b--9--|--LS--14--L--------L--L--|
-----------------------------|--------------------------|
-----------------------------|--------------------------|


 Q   E   Q   E  E  E   W             Q   E   Q   E  E  E
-----------------------------|-------------------|-----------------------------|
-----------------------------|-------------------|-----------------------------|
-------11b--11----L----------|-------------------|-------11b--11----L----------|
---------------------10b--9--|--L----------------|---------------------10b--9--|
-----------------------------|-------------------|-----------------------------|
-----------------------------|-------------------|-----------------------------|


 E   E H     E E
--------------------------|-------------------|-------------------|
--------------------------|-------------------|-------------------|
--------------------------|-------------------|-------------------|
--LS--14--L--------L--L--|-------------------|-------------------|
--------------------------|-------------------|-------------------|
--------------------------|-------------------|-------------------|


Duration Legend
---------------
W - whole
H - half
Q - quarter
E - 8th
S - 16th
T - 32nd
X - 64th
. - note dotted
|-n-| - n-tuplets


Tablature Legend
----------------
L - tied note
x - dead note
g - grace note
(n) - ghost note
> - accentuded note
NH - natural harmonic
AH - artificial harmonic
TH - tapped harmonic
SH - semi harmonic
PH - pitch harmonic
h - hammer on
p - pull off
b - bend
br - bendRelease
pb - preBend
pbr - preBendRelease
brb - bendReleaseBend
n/ - tremolo bar dip
n - tremolo bar dive
-/n - tremolo bar Release up
/n - tremolo bar inverted dip
/n - tremolo bar return
-n - tremolo bar Release down
S - shift slide
s - legato slide
/ - slide into from below or out of upwards
 - slide into from above or out of downwards
~ - vibrato
W - wide vibrato
tr - trill
TP - tremolo picking
T - tapping
S - slap
P - pop


Текст, аккорды и табулатура для песни "The Light Behind Your Eyes", исполняет "My Chemical Romance".
Используемые в песне аккорды можно найти в разделе Как брать аккорды. Аккорды для шестиструнной гитары. Другие песни можно найти на нашем сайте, воспользовавшись алфавитным указателем вверху страницы.


Слушать онлайн The Light Behind Your Eyes


My Chemical RomanceThe Light Behind Your Eyes на Яндекс.Музыке


 
Ошибка в тексте? Выделите ошибку и нажмите Ctrl+Enter