Gtr I Frank Iero: Standard Tuning (e,B,G,D,A,E)
Gtr II Ray Toro: Standard Tuning

All done on a clean setting

Gtr I Frank

e:|--2-2-2-222-2--2-2-2-2-22--2-2-2-2-2-22-2-|
B:|--3-3-3-333-3--3-3-3-3-33--3-3-3-3-3-33-3-|
G:|--2-2-2-222-2--4-4-4-4-44--4-2-2-2-2-22-2-|
D:|------------------------------------------|
A:|------------------------------------------|
E:|------------------------------------------|

e:|----------------|
B:|--------2-2-22--|
G:|-4-4444-2-2-22--|
D:|-4-4444-2-2-22--|
A:|-2-2222---------|
E:|----------------|

Gtr II Ray

e:|------------------------------------|
B:|------------------------------------|
G:|------------------------------------|
D:|--14~--14-12~--14-12~-14--14/16--14-|
A:|------------------------------------|
E:|------------------------------------|


Текст, аккорды и табулатура для песни "Early Sunsets Over Monroeville", исполняет "My Chemical Romance".
Используемые в песне аккорды можно найти в разделе Как брать аккорды. Аккорды для шестиструнной гитары. Другие песни можно найти на нашем сайте, воспользовавшись алфавитным указателем вверху страницы.


Слушать онлайн Early Sunsets Over Monroeville


Vitamin String QuartetEarly Sunsets Over Monroeville на Яндекс.Музыке


 
Ошибка в тексте? Выделите ошибку и нажмите Ctrl+Enter