Guitar 1
 
e|-0--0-0-0--0-0-0--7/-5-5-5???-3--3-3-3---0--0-0-0--3--3-3-3---|
B|-0--0-0-0--0-0-0--0--0-0-0--0--0???0-0---0--0-0-0--0--0-0-0---|
G|-0--0-0-0--0-0-0--0--0-0-0--0--0-0-0---0--0-0-0--0--0-0-0---|
D|-2???-2-2-2--2-2-2-----------------------1--1-1-1--1--1-1-1---|
A|-2--2-2-2--2-2-2-----------------------3--3-3-3--3--3-3-3---|
E|-0--0-0-0--0-0-0-----------------------0--0-0-0--0--0-0-0---|

e|---0--0-0-0--3--3-3-3--|
B|---0--0-0-0--0--0-0-0--|
G|---0--0-0-0--0--0-0-0--| Do this 2 times
D|---1--1-1-1--1--1-1-1--|
A|---3--3-3-3--3--3-3-3--|
E|---0--0-0-0--0--0-0-0--|

A the end of the intro (im not sure about this part)

e|--3-----------------|
B|--------------------|
G|-----0--------0-----|
D|--------1-----------|
A|-----------3--------|
E|--------------------|

Guitar 2
                      |Do this only in the first time
                      |
e:|---(5)---------------(5)----- |-------|
B:|-----(5)~-(5)-(7)~------(7)~--|---17~-|
G:|------------------------------|-16----|
D:|------------------------------|-------|
A:|------------------------------|-------|
E:|------------------------------|-------|


Текст, аккорды и табулатура для песни "Desert Song", исполняет "My Chemical Romance".
Используемые в песне аккорды можно найти в разделе Как брать аккорды. Аккорды для шестиструнной гитары. Другие песни можно найти на нашем сайте, воспользовавшись алфавитным указателем вверху страницы.


Слушать онлайн Desert Song


My Chemical RomanceDesert Song на Яндекс.Музыке


 
Ошибка в тексте? Выделите ошибку и нажмите Ctrl+Enter