-----------------------------------------------------------------------------
                             WITHOUT YOU-MxPx
-----------------------------------------------------------------------------
Tabbed By: Elijah
Tuning: Standard (EADGBe)

Intro
e|-----------------|
B|-----------------|
G|-----5--4--0--4--|
D|-----------------|
A|-----------------|
E|--3--------------|

Verse (*=palm muted)
e|-----------------------------------------------------|
B|-----------------------------------------------------|
G|------------------------------------5-5-555-7-7-777--|
D|--5555555555555555-4444444444444444-5-5-555-7-7-777--|
A|--5555555555555555-4444444444444444-3-3-333-5-5-555--|
E|--3333333333333333-2222222222222222------------------|
     *************** ****************

Pre Chorus
e|------------------------|
B|-----------------44444--|
G|-------------5---55555--|
D|-5---4---2---5---55555--|
A|-5---4---2---3---33333--|
E|-3---2---0--------------|

Chorus
e|-------------------------------------------------------------------------|
B|-------------------------------------------------------------------------|
G|-------------------------------------4-44-444-4-44-444-5-55-55-------555-|
D|-5-55-555-5-55-555-2-22-222-2-22-222-4-44-444-4-44-444-5-55-55-------555-|
A|-5-55-555-5-55-555-2-22-222-2-22-222-2-22-222-2-22-222-3-33-33-------333-|
E|-3-33-333-3-33-333-0-00-000-0-00-000-------------------------------------|

Bridge, Guitar 1
e|--------------------------------------------------------------------|
B|---8---7---8------8---10---7------8---7---5-------------------------|
G|-7---7---7------7---7----7------7---7---7------xx-5-xx-5-xx-5-xx-5--|
D|-----------------------------------------------xx-5-xx-5-xx-5-xx-5--|
A|-----------------------------------------------xx-3-xx-3-xx-3-xx-3--|
E|--------------------------------------------------------------------|

Bridge, Guitar 2 (start after guitar 1 plays its part 2 times)
e|-----------------------------------------------------------------------|
B|-----------------------------------------------------------------------|
G|--------------------------------------------------xx-5-xx-5-xx-5-xx-5--|
D|-5-55-55-5-55-55-4-44-44-4-44-44-2-22-22-2-22-22--xx-5-xx-5-xx-5-xx-5--|
A|-5-55-55-5-55-55-4-44-44-4-44-44-2-22-22-2-22-22--xx-3-xx-3-xx-3-xx-3--|
E|-3-33-33-3-33-33-2-22-22-2-22-22-0-00-00-0-00-00-----------------------|

Outro
e|-----------------|
B|-----------------|
G|-----5--4--0-----|
D|-----------------|
A|--------------2--|
E|--3--------------|


Song Order
Intro x1
Verse x2
Pre Chorus x1
Verse x2
Pre Chorus x1
Chorus x2
Bridge, Guitar 1 x4, Guitar 2 x2 (after guitar 1 plays its part twice) 
Chorus x2
Outro x1

Lyrics

I got a confession to make
That my heart would break
To hear you say goodbye
You're my every dream
You're the threadwork to my seams
And you know that I can't lie, when I say

I can't stop thinking about you
I can't stop thinking about how
My heart's empty without you

I just hate myself
To think of you with someone else
To hear you say goodbye
I love you for who you are
No more, no less
And you know that I can't lie, when I say. . .

My dreams will never come true without you


Текст, аккорды и табулатура для песни "Without You", исполняет "Mxpx".
Используемые в песне аккорды можно найти в разделе Как брать аккорды. Аккорды для шестиструнной гитары. Другие песни можно найти на нашем сайте, воспользовавшись алфавитным указателем вверху страницы.


 
Ошибка в тексте? Выделите ошибку и нажмите Ctrl+Enter