Title: You
Artist: Mustard Plug
Tabbed By: Matt Glover

Standard Tuning

Intro
|--6-----------------|
|--6---7---8---10----|
|--7---7---8---10----|x4
|--8---7---8---10----|
|--------------------|
|--------------------|

Verse
|--6----------------------6---5---8----------------|
|--6---7---8---10---------6---6---8---8------------|
|--7---7---8---10--x2-----7---7---9---8---x2-------|
|--8---7---8---10---------8------10---8------------|
|--------------------------------------------------|
|--------------------------------------------------|

Bridge
|-------------------------------------------------|
|-------------------------------------------------|
|-------8-------8-------8----7---8--7--8--7-------|
|---5---8---5---8---5---8----7---8--7--8--7-------|
|---5---6---5---6---5---6----5---6--5--6--5-------|
|---3-------3-------3-----------------------------|

Chorus
|---------------------|
|---------------------|
|-------7-------8-----| 
|---8---7---5---8-----|  x4
|---8---5---5---6-----|
|---6-------3---------|

Verse
|--6----------------------6---5---8----------------|
|--6---7---8---10---------6---6---8---8------------|
|--7---7---8---10--x4-----7---7---9---8---x2-------|
|--8---7---8---10---------8------10---8------------|
|--------------------------------------------------|
|--------------------------------------------------|

Bridge
|-------------------------------------------------|
|-------------------------------------------------|
|-------8-------8-------8----7---8--7--8--7-------|
|---5---8---5---8---5---8----7---8--7--8--7-------|
|---5---6---5---6---5---6----5---6--5--6--5-------|
|---3-------3-------3-----------------------------|

Chorus
|---------------------|
|---------------------|
|-------7-------8-----| 
|---8---7---5---8-----|  x4
|---8---5---5---6-----|
|---6-------3---------|

Horns Solo

Verse
|--6----------------------6---5---8----------------|
|--6---7---8---10---------6---6---8---8------------|
|--7---7---8---10--x4-----7---7---9---8---x2-------|
|--8---7---8---10---------8------10---8------------|
|--------------------------------------------------|
|--------------------------------------------------|

Bridge
|-------------------------------------------------|
|-------------------------------------------------|
|-------8-------8-------8----7---8--7--8--7-------|
|---5---8---5---8---5---8----7---8--7--8--7-------|
|---5---6---5---6---5---6----5---6--5--6--5-------|
|---3-------3-------3-----------------------------|

Chorus                           Ending                      End On
|---------------------|         |-----------------------|    |-----|
|---------------------|         |-----------------------|    |-----|
|-------7-------8-----|         |------10---8---7---8---|    |-----|
|---8---7---5---8-----|  x4     |--8---10---8---7---8---| x4 |--8--| 
|---8---5---5---6-----|         |--8---8----6---5---6---|    |--8--| 
|---6-------3---------|         |--6--------------------|    |--6--|


Текст, аккорды и табулатура для песни "You", исполняет "Mustard Plug".
Используемые в песне аккорды можно найти в разделе Как брать аккорды. Аккорды для шестиструнной гитары. Другие песни можно найти на нашем сайте, воспользовавшись алфавитным указателем вверху страницы.


Слушать онлайн You


Mustard PlugYou на Яндекс.Музыке


 
Ошибка в тексте? Выделите ошибку и нажмите Ctrl+Enter