YESTERDAY - Mustad Plug

By: Jordan Fallon ([email protected])

Intro - Distorted
e|------------------------------------------------|
B|------------------------------------------------|
G|---------------7---------------------------7----|
D|---7-----9-----7---------7-----9-----2-----7----|  x2
A|---7-----9-----5---------7-----9-----2-----5----|
E|---5-----7---------------5-----7-----0----------|

Verse 1 - Clean, Ska upbeat
e|---5-----5-----7-----5-----5-----5-----7-----5----|
B|---5-----7-----7-----7-----5-----7-----7-----5----|
G|---6-----7-----8-----7-----6-----7-----8-----6----|
D|---7-----7-----9-----7-----7-----7-----9-----7----|  x2
A|---7-----5-----9-----5-----7-----5-----9-----7----|
E|---5-----5-----7-----5-----5-----5-----7-----5----|
 
Riff 1 - Distorted
e|--------------------------------------|
B|--------------------------------------|
G|-----------7---------------7-----9----|
D|---9-------7-------9-------7-----9----|
A|---7-------5-------9-------5-----7----|
E|---7---------------7------------------|

 Riff 2 - Distorted
e|------------------------|
B|------------------------|
G|-----------7-------9----|
D|---9-------7-------9----|
A|---9-------5-------7----|
E|---7--------------------|
 
 Chorus 

Riff 4 - Distorted
e|----------------------------------------|
B|----------------------------------------|
G|---------------------------------777----|
D|---777-------222-------999-------777----|  x2
A|---777-------222-------999-------555----|
E|---555-------000-------777--------------|

Riff 1
Pre-Chorus
Riff 2
Chorus - Last chord Clean, hold


Текст, аккорды и табулатура для песни "Yesterday", исполняет "Mustard Plug".
Используемые в песне аккорды можно найти в разделе Как брать аккорды. Аккорды для шестиструнной гитары. Другие песни можно найти на нашем сайте, воспользовавшись алфавитным указателем вверху страницы.


Слушать онлайн Yesterday


Mustard PlugYesterday на Яндекс.Музыке


 
Ошибка в тексте? Выделите ошибку и нажмите Ctrl+Enter