#-----------------------------------------------------------------------------#
#-- File created with Instab - http://www.pconline.com/~smcarey/instab.html --#
#-----------------------------------------------------------------------------#

Author/Artist: Mushroomhead
Title: Sun Doesn't Rise
Album: XIII
Transcribed by: Andrew Hitchcock
Email: [email protected]

This is a great song which I can't stop listening to. 
It is in CGCFAd tuning for 6-sting.  I know Mushroomhead
uses 7-strings  but for those who don't have one here it is. 

-|----------------------------------------------------------|-----------------
-|----------------------------------------------------------|-----------------
-|----------------------------------------------------------|-----------------
-|--------------------------------------------------------x2|-----------------
-|-3/5-5-5-6-6-6-3/5-5-5-6-6-6-3/5-5-5-6-5-5/1-1-1-5-3-3----|-----------------
-|----------------------------------------------------------|-----------------
           Intro:

-|-----------------|-----------------------|-----------------|----------------
-|-----------------|-----------------------|-----------------|----------------
-|-----------------|----------10101010-----|-----------------|----------------
-|--------------x4-|----------x-x-x-x---x3-|-----------------|----------------
-|-0-xx0---0000----|-0-xx0-xx-8-8-8-8------|--3/5/6/8/9/10---|----------------
-|-0-xx0---0000----|-0-xx0-xx--------------|--3/5/6/8/9/10---|----------------
  pm       ....    Verse:                 Fill^ Slide up slowly

-|---------------------------------------|--------------------------|---------
-|---------------------------------------|--------------------------|---------
-|---------------------------------------|--------------------------|---------
-|---------------------------------------|--------------------------|---------
-|-10-xxx10-xxx10--3-xxx8-xx-5/65---x3-|-10-xxx10-xxx10-98653-|---------
-|-10-xxx10-xxx10--3-xxx8-xx-5/65------|-10-xxx10-xxx10-98653-|---------
      Chorus:                                     slow slides^    ^let ring

-|-----------------|---------------------|--------------|-------------------|-
-|-----------------|---------------------|--------------|-------------------|-
-|-----------------|----------10101010---|--------------|---------10101010--|-
-|--------------x4-|----------x-x-x-x-x3-|--------------|---------x-x-x-x-x3|-
-|-0-xx0---0000----|-0-xx0-xx-8-8-8-8----|-3/5/6/8/9/10-|0-xx0-xx-8-8-8-8---|-
-|-0-xx0---0000----|-0-xx0-xx------------|-3/5/6/8/9/10-|0-xx0-xx-----------|-
   pm      ....   Verse:

-|--------------|-------------------------------------|-----------------------
-|--------------|-------------------------------------|-----------------------
-|--------------|-------------------------------------|-----------------------
-|--------------|----------------------------------x3-|-----------------------
-|-3/5/6/8/9/10-|-10-xxx10-xxx10--3-xxx8-xx-5/65----|-10-xxx10-xxx10-986-
-|-3/5/6/8/9/10-|-10-xxx10-xxx10--3-xxx8-xx-5/65----|-10-xxx10-xxx10-986-
                            Chorus:                           Slowly Slide^

-|-------|-------------------------------------------------------------|------
-|-------|-------------------------------------------------------------|------
-|-------|-------------------------------------------------------------|------
-|-------|-------------------------------------------------------------|------
-|-53-|-----3/5-5-5-6-6-6-3/5-5-5-6-6-6-3/5-5-5-6-6-6-3/5-5-5-6-6-6-|------
-|-53-|-------------------------------------------------------------|------
       ^ let ring                 Bridge: soft part after chorus

-|-------------------------|--------------------------------------------------
-|-------------------------|--------------------------------------------------
-|-------------------------|--------------------------------------------------
-|-------------------------|--------------------------------------------------
-|-3/5-5-5-6-5-51-1-1-5-3-|-3/5-5-5-6-6-6-3/5-5-5-6-6-6-3/5-5-5-6-6-6-3/5-5--
-|-------------------------|--------------------------------------------------
                                Played during J Mann's Wisper

-|-------------------|---------------------|-------|--------------------------
-|-------------------|---------------------|-------|--------------------------
-|-------------------|--------7/87/87----|-------|--------------------------
-|-------------------|--------x/xx/xx--x3|-------|--------------------------
-|-5-6-5-5/1-1-1-5-3-|-0-xx0--5/65/65----|-0-xx0-|--------------------------
-|-------------------|-0-xx0---------------|-0-xx0-|--------------------------
                                  Verse:         ^Kill note after stroke      

-|--------------------------------------|--------------------------|----------
-|--------------------------------------|--------------------------|----------
-|--------------------------------------|--------------------------|----------
-|-----------------------------------x3-|--------------------------|----------
-|-10-xxx10-xxx10--3-xxx8-xx-5/65-----|-10-xxx10-xxx10--98653|----------
-|-10-xxx10-xxx10--3-xxx8-xx-5/65-----|-10-xxx10-xxx10--98653|----------


-|----------------------|--------------------|--------------|-----------------
-|----------------------|--------------------|--------------|-----------------
-|----------------------|--------------------|--------------|-----------------
-|-------------------x4-|-----------------x3-|--------------|-----------------
-|-000-x000--xx0000-----|-000-x000-0-0-0-----|-000--x-0-0---|-----------------
-|-000-x000--xx0000-----|-000-x000-0-0-0-----|-000--x-0-0---|-----------------
 pm..   ...    ...        ..   ..  . . .       ...


Текст, аккорды и табулатура для песни "Sun Doesnt Rise", исполняет "Mushroomhead".
Используемые в песне аккорды можно найти в разделе Как брать аккорды. Аккорды для шестиструнной гитары. Другие песни можно найти на нашем сайте, воспользовавшись алфавитным указателем вверху страницы.


 
Ошибка в тексте? Выделите ошибку и нажмите Ctrl+Enter