----------------------------------------------------------------------------
			     NEW BORN - Muse
----------------------------------------------------------------------------
Tabbed by:dorris
Email:[email protected]

Comments:rate oh and i got this from the book so it should be right!

INTRO: NO GUITAR

CLIMAX THINGY:  (W/HEAVY FUZZ)
e|-------------------------------------------------------------------------|
B|-------------------------------------------------------------------------|
G|-------------------------------------------------------------------------|
D|-------------------------------------------------------------------------|
A|-------------------------------------------------------------------------|
E|--2-2-2-2-5-2-5-6-7-7-7-7-10-7-10-11-12-0-0-12-12-0-3-4-5-5-5-0----------|

e|-0-0-0-0-0-0-0---0-0-0-0-0-0-0-0--2-2-2-2-2-2-2-2-2-2-2-2----------------|
B|-1-1-1-1-1-1-1---2-2-2-2-2-2-2-2--0-0-0-0-0-0-0-0-4-4-4-4----------------|
G|-0-0-0-0-0-0-0---0-0-0-0-0-0-0-0--0-0-0-0-0-0-0-0-4-4-4-4-4-4-4-4--------|
D|-2-2-2-2-2-2-2---2-2-2-2-2-2-2-2--2-2-2-2-2-2-2-2-4-4-4-4-4-4-4-4--------|
A|-3-3-3-3-3-3-3-0-1-1-1-1-1-1-1-1--2-2-2-2-2-2-2-2-2-2-2-2-2-2-2-2--------|
E|-------------------------------------------------------------------------|

e|-------------------------------------------------------------------------|
B|-------------------------------------------------------------------------|
G|-------------------------------------------------------------------------|
D|-------------------------------------------------------------------------|
A|----------------------------------------------------------------2-2-0-2--|
E|--2-2-2-2-5-2-5-6-7-7-7-7-10-7-10-11-12-0-0-12-12-0-3-4-5-5-5-5----------|

e|-0--0--2--2--------------------------------------------------------------|
B|-1--2--0--4--------------------------------------------------------------|
G|-0--0--0--4--------------------------------------------------------------|
D|-2--2--2--4--------------------------------------------------------------|
A|-3--1--2--2--------------------------------------------------------------|
E|-------------2-2-2-2-5-2-5-6-7-7-7-7-10-7-10-11-12-0-0-12-12-0-3-4-------|


e|---------------------------0--0--2--2------------------------------------|
B|---------------------------1--2--0--4------------------------------------|
G|---------------------------0--0--0--4--------------9*-------------------|
D|---------------------------2--2--2--4----------4---9*-------------------|
A|---------2-2-0-2-----------3--1--2--2----------2---7*-------------------|
E|-5-5-5-5-----------------------------------------------------------------|

BASS ARR. FOR GTR.(STANDARD TUNING)
e|-------------------------------------------------------------------------|
B|-------------------------------------------------------------------------|
G|------9--------------9-------------9---------------9---------------------|
D|----------7---9---------7---9---------7---9-----------7----9-------------|
A|--7---------------7------------7-------------7---------------------------|
E|-------------------------------------------------------------------------|

e|-------------------------------------------------------------------------|
B|-------------------------------------------------------------------------|
G|-------------------------------------------------8-------------8---------|
D|---10----------10----------9---------9---------------7--9---------7--9---|
A|------9--10-------9-10-------9-10------9-10---6------------6-------------|
E|-8-----------8----------7---------7--------------------------------------|

CHORUS
e|-0-0-0------0-----0------------------------------------------------------|
B|-0-0-0------0-----0----10-10-10------10------10--------------------------|
G|-0-0-0------0-----0-----9--9--9-------9-------9--------------------------|
D|-2-2-2------2-----2-----7--7--7-------7-------7--------------------------|
A|-2-2-2------2-----2-----7--7--7-------7-------7--------------------------|
E|-2-2-2------2-----2-----7--7--7-------7-------7--------------------------|


e|-------------------------------------------------------------------------|
B|----------------------------------------------------8---8---8-------8--8-|
G|-11-11-11--11----11---12-12-12-----12-------12------9---9---9-------9--9-|
D|-0--0--0----0-----0---0--0--0------0--------0-------10--10--10------10-10|
A|-9--9--9----9-----9---10-10-10-----10-------10------7---7---7-------7---7|
E|-0--0--0----0-----0------------------------------------------------------|


e|-------------------------------------------------------------------------|
B|-8-8-8---8---8---5-5-5----5----5------4-4-4---4--4-----------------------|
G|-6-6-6---6---6---4-4-4----4----4------4-4-4---4--4-----------------------|
D|-8-8-8---8---8---5-5-5----5----5------4-4-4---4--4-----------------------|
A|-7-7-7---7---7---2-2-2----2----2------2-2-2---2--2-----------------------|
E|-------------------------------------------------------------------------|

e|-0-0-0------0-----0------------------------------------------------------|
B|-0-0-0------0-----0----10-10-10------10------10--------------------------|
G|-0-0-0------0-----0-----9--9--9-------9-------9--------------------------|
D|-2-2-2------2-----2-----7--7--7-------7-------7--------------------------|
A|-2-2-2------2-----2-----7--7--7-------7-------7--------------------------|
E|-2-2-2------2-----2-----7--7--7-------7-------7--------------------------|


e|-------------------------------------------------------------------------|
B|----------------------------------------------------8---8---8-------8--8-|
G|-11-11-11--11----11---12-12-12-----12-------12------9---9---9-------9--9-|
D|-0--0--0----0-----0---0--0--0------0--------0-------10--10--10------10-10|
A|-9--9--9----9-----9---10-10-10-----10-------10------7---7---7-------7---7|
E|-0--0--0----0-----0------------------------------------------------------|


e|-------------------------------------------------------------------------|
B|-8-8-8---8---8---5-5-5----5----5------4-4-4---4--4-----------------------|
G|-6-6-6---6---6---4-4-4----4----4------4-4-4---4--4-----------------------|
D|-8-8-8---8---8---5-5-5----5----5------4-4-4---4--4-----------------------|
A|-7-7-7---7---7---2-2-2----2----2------2-2-2---2--2-----------------------|
E|-------------------------------------------------------------------------|


e|-------------------------------------------------------------------------|
B|-------------------------------------------------------------------------|
G|-x--x--x--x--x--x--x----x-x----------------------------------------------|
D|-x--x--x--x--x--x--x----x-x----------------------------------------------|
A|-x--x--x--x--x--x--x----x-x----------------------------------------------|
E|-x--x--x--x--x--x--x----x-x--(3)--(3)--(3)--(3)--(3)--(3)--(3)-(3)-(3)---|


e|--------------------------------------------------7---------------------|
B|-------------------------------------------------------------------------|
G|-------------------------------------------------------------------------|
D|-------------------------------------------------------------------------|
A|-------------------------------------------------------------------------|
E|-(2)--(2)--(2)--(2)--(2)--(2)--(2)----(2)-(2)----------------------------|

SOLO (W/WHAMMY PEDAL)
e|-------------------------------------------------------------------------|
B|-12-12-12-12-8-8-8-8-5-5-5-5-8-8-0/-12-12-12-12-7-7-7-7-4-4-4-4-7-7-0/---|
G|-------------------------------------------------------------------------|
D|-------------------------------------------------------------------------|
A|-------------------------------------------------------------------------|
E|-------------------------------------------------------------------------|

e|-------------------------------------------------------------------------|
B|-12-12-12-12-8-8-8-8-5-5-5-5-8-8-0/-12-12-12-12-7-7-7-7-4-4-4-4-7-7-0/---|
G|-------------------------------------------------------------------------|
D|-------------------------------------------------------------------------|
A|-------------------------------------------------------------------------|
E|-------------------------------------------------------------------------|

e|-------------------------------------------------------------------------|
B|-12-12-12-12-8-8-8-8-5-5-5-5-1-1-1-1-13-13-13-13-8-8-8-8-5-5-5-5-0-0-0-0-|
G|-------------------------------------------------------------------------|
D|-------------------------------------------------------------------------|
A|-------------------------------------------------------------------------|
E|-------------------------------------------------------------------------|


e|----------------------------|--------------------------------------------|
B|-12-12-12-12-8-8-8-8-3-3-3--|-4-4-4-4-7-7-7-7-12-12-12/-----------------|
G|----------------------------|--------------------------------------------|
D|----------------------------|--------------------------------------------|
A|----------------------------|--------------------------------------------|
E|----------------------------|--------------------------------------------|

e|-------------------------------------------------------------------------|
B|-12-12-12-12-8-8-8-8-5-5-5-5-8-8-0/-12-12-12-12-7-7-7-7-4-4-4-4-7-7-0/---|
G|-------------------------------------------------------------------------|
D|-------------------------------------------------------------------------|
A|-------------------------------------------------------------------------|
E|-------------------------------------------------------------------------|

e|-------------------------------------------------------------------------|
B|-12/8-8-8-8-5-5-5-5-8-8-8-8-12-12-12-12-7-7-7-7-4-4-4-4-7-7-7-7-0/------|
G|-------------------------------------------------------------------------|
D|-------------------------------------------------------------------------|
A|-------------------------------------------------------------------------|
E|-------------------------------------------------------------------------|

e|-------------------------------------------------------------------------|
B|-12/-8/-5-5-5-5-12-12-12-12-13-13-13-13-8-8-8-8-5-5-5-5-13-13-13-13----|
G|-------------------------------------------------------------------------|
D|-------------------------------------------------------------------------|
A|-------------------------------------------------------------------------|
E|-------------------------------------------------------------------------|

e|------------------------------x------------------------------------------|
B|--12-12-12-12-8-8-8-8-3-----------4--/////--------------------------|
G|-------------------------------------------------------------------------|
D|-------------------------------------------------------------------------|
A|-------------------------------------------------------------------------|
E|-------------------------------------------------------------------------|

e|-------------------------------------------------------------------------|
B|-4---4---4---4----4-4----------------------------------------------------|
G|-4---4---4---4----4-4----------------------------------------------------|
D|-4---4---4---4----4-4----------------------------------------------------|
A|-2---2---2---2----2-2----------------------------------------------------|
E|-------------------------------------------------------------------------|

e|-------------------------------------------------------------------------|
B|-------------------------------------------------------------------------|
G|-------------------------------------------------------------------------|
D|-------------------------------------------------------------------------|
A|--------------------------------------------------------------2-2-0-2----|
E|--2-2-2-2-5-2-5-6-7-7-7-7-10-7-10-11-12-0-0-12-12-0-3-4-5-5-5------------|

e|-0-----------------0---------------2-----------------2-------------------|
B|-1-----------------2---------------0-----------------4-------------------|
G|-0-----------------0---------------0-----------------4-------------------|
D|-2-----------------2---------------2-----------------4-------------------|
A|-3-----------------1---------------2-----------------2-------------------|
E|-------------------------------------------------------------------------|

e|-------------------------------------------------------------------------|
B|-------------------------------------------------------------------------|
G|-------------------------------------------------------------------------|
D|-------------------------------------------------------------------------|
A|--------------------------------------------------------------2-2-0-2----|
E|--2-2-2-2-5-2-5-6-7-7-7-7-10-7-10-11-12-0-0-12-12-0-3-4-5-5-5------------|

e|-0-------------0----------2----2----2----2-------------------------------|
B|-1---2^----0---1----2^----0----0----0----0----4--------------0-----------|
G|-0-------------0----------0----0----0----0----4--------------0-----------|
D|-2-------------2----------2----2----2----2----4--------------0--0--------|
A|-3-------------1----------2----2----2----2----2-----------------0--------|
E|----------------------------------------------------------------0--------|

e|-0-----------------------------------------------------------------------|
B|-0-----------------------------------------------------------------------|
G|-0-----------------------------------------------------------------------|
D|-2-----------------------------------------------------------------------|
A|-2-----------------------------------------------------------------------|
E|-2-----------------------------------------------------------------------|

MESS ABOUT WITH THE LAST CHORD LIKE SLIDE IT ABOUT OR BEND IT OR WATEVER


| ^  bend
| /  slide up
|   slide down
| h  hammer-on
| p  pull-off
| ~  vibrato
| () harmonic
| x  Mute note
============================================================================


Текст, аккорды и табулатура для песни "New Born (ver 8)", исполняет "Muse".
Используемые в песне аккорды можно найти в разделе Как брать аккорды. Аккорды для шестиструнной гитары. Другие песни можно найти на нашем сайте, воспользовавшись алфавитным указателем вверху страницы.


 
Ошибка в тексте? Выделите ошибку и нажмите Ctrl+Enter