Muse - I Want You Now
Tabbed By: Myke
EMail: [email protected]

Standard Tuning

Riff 1:

|-----------------------------------------------------------------------------------------|
|----------------------------------3------------------------------------------------------|
|------------------------2-----5-5---5-54-43-32-0-0-2-0-------------0-0-2-0------------|
|------------2-5-2-5-2-5-----------------------------------2-3-2-0-2-----------2-3-2-0-2--|
|------5-2-5---------------5-5---------------------------------------0--------------------|
|--0-0------------------------------------------------------------------------------------| 

|----------------------------------------------------------------------017-------|
|----------------------------------3--------------------------------------x-------|
|------------------------2-----5-5---5-54-43-32-0-0-2-0----------------x-xxxx--|
|------------2-5-2-5-2-5-----------------------------------2-3-2-0-2--------xxxx--|
|------5-2-5---------------5-5---------------------------------------0------xxxx--|
|--0-0----------------------------------------------------------------------------| 

Riff 2:

|-------------------------------------------------------------|
|-------------------------------------------------------------|
|-------------------------------------------------------------|
|--6-6-6-7-9/10--------7-9-10-7-------7-9-10--------7-9-10-7--|
|-----------------8-8-8-----------7-7----------0-0------------|
|-------------------------------------------------------------|

|-------------------------------------------------|
|-------------------------------------------------|
|-------------------------------------------------|
|--6-6-6-7-9/10--------7-9-10-7-------7-9-10------|
|-----------------8-8-8-----------7-7----------0--|
|-------------------------------------------------|

Verse:

|------------------------------------|
|------------------------------------|
|--9--------9--------10--------12-9--|
|------------------------------------|
|------------------------------------|
|------------------------------------| 

Chorus: 

|--3--------3--------1--------0--|
|--5--------3--------3--------1--|
|--5--------4--------2--------2--|
|--5--------5--------0--------2--|
|--3--------5--------0--------0--|
|--3--------3--------------------|

Solo:

|--------------------------------------------------|
|-------17-17-------18-18-------18-18-17-17--------|
|-13-13-------13-13-------13-13-------------13-13--|
|--------------------------------------------------|
|--------------------------------------------------|
|--------------------------------------------------|

|--------------------------------17-17--------------|
|--------17-17-------18-18-------------------17-17--|
|--14-14-------14-14-------14-14-------14-14--------|
|---------------------------------------------------|
|---------------------------------------------------|
|---------------------------------------------------|

|---------------------------------------------------|
|--------17-17-------18-18-------18-18-17-17--------|
|--13-13-------13-13-------13-13-------------13-13--|
|---------------------------------------------------|
|---------------------------------------------------|
|---------------------------------------------------|

|----------------------------------------------------|
|---------17-17-------18-18-------18-18-17-17--------|
|---14-14-------14-14-------14-14-------------14-14--|
|----------------------------------------------------|
|----------------------------------------------------|
|----------------------------------------------------|

[email protected]
2OO2


Текст, аккорды и табулатура для песни "I Want You Now", исполняет "Muse".
Используемые в песне аккорды можно найти в разделе Как брать аккорды. Аккорды для шестиструнной гитары. Другие песни можно найти на нашем сайте, воспользовавшись алфавитным указателем вверху страницы.


 
Ошибка в тексте? Выделите ошибку и нажмите Ctrl+Enter